rock
 
|tablatures   |lyrics   |discussion forums   |more tabs @ XGuitar.com

Radiohead tabs

My Iron Lung bass tab

"My Iron Lung" (bass)
Radiohead
by pieter billen <pin14106@ping.be>

--------------------------|--------------------------|
--------------------------|--------------------------| repeat 3 times
--------------------------|--3--3--3--3--3--3--3-----|
--3--3--3--3--3--3--3--3--|-----------------------0--|


--------------------------|--------------------------|
--------------------------|--------------------------|
--------------------------|--3--3--5--5--6--6--8--8--|
--3--3--3--3--3--3--3--0--|--------------------------|


/\/\/\/\/\/\/\/\/\/\/\/\/\/\/\/\/\/\/\/\/\/\/\
+  Adrian Morse <amorse@waterw.com>          +
+  The Radiohead Guitar Archive @ No Alarms  +
+  http://www.waterw.com/~amorse/radiohead/  +
++++++++++++++++++++++++++++++++++++++++++++++
  development and support by
dmitry ivanov