rock
 
|tablatures   |lyrics   |discussion forums   |more tabs @ XGuitar.com

Radiohead tabs

Motion Picture Soundtrack guitar tab

MOTION PICTURE SOUNDTRACK

transcription by Joey Gallagher     - joeygallagher@hotmail.com

My last version was correct so I thought, but when I played this on the 
guitar while listening to it something didn't sound right. I finally found 
the problem, sneaky Thom tuned his guitar up (the same tuning is on Lift). 
After re-tuning my guitar I was able to pinpoint the exact chord changes 
more clearly. So I think I can say I'm done with updating this song, I'm as 
close as I'm ever gonna get. (that's what I always say)

You have to tune your guitar up a 1/4 of a step, 1/4 step is only slightly 
tuned up higher than it normally is. (this can be kind of tricky you might 
need a digital tuner)

Chords Used

G- (3x0003)
CsusA- (x30203)
Csus2- (x30003)
Bmadd9- (x2x002)
Em- (022000)
C- (x32010)
Cadd9- (x32030)
G/D- (320033)
G/F#- (2x0233)
B7- (x21200)
C/A- (x30200)
(G) Bass note  (hit top string on 3rd fret quickly)
(E) Bass note  (hit the top string open quickly)


Intro      G     CsusA      Csus2      Bmadd9        Csus2

Verse 1
G               CsusA     Csus2  Bmadd9                      Csus2
White wine, and sleeping pills, help me get back into your arms,
cheap sex, and sad films,      help me get  to     where I belong,


Chorus 1
         (G)   Em     C  Cadd9  (E) G/D   G/F#
I think your craaaaaaaazy,          maybe
         (G)   Em     C  Cadd9  (E) G/D   G/F#
I think your craaaaaaaazy,          maybe


Verse 2   (same chords as verse 1)

Don't send them letters, letters always get burned,
It's not like the movies, they fed us all little white lies,


Chorus 2

         (G)   Em     C  Cadd9  (E) G/D   G/F#
I think your craaaaaaaazy,          maybe
         (G)   Em     C  Cadd9  (E) G/D   G/F#
I think your craaaaaaaazy,          maybe

B7                   Em           C/A
    I will see you in,   in the next
life-eeeeeeeeeeeeeeeeeeeeeee
e-------------------------------------------------------------------
B-------0-----0------------0------------------0-----0---------------
G-----0---0-----0--------0---0---0----------0---0---0---------------
D---2-------2----------2-------2---2------2-------2-----------------
A-4------------------3------------------3---------------------------
E-------------------------------------------------------------------

Verse 3   (same chords as verse 1)

Beautiful angel pulled apart at birth,
Limbless, and helpless, I can't even recognise you


Chorus 3

         (G)   Em     C  Cadd9  (E) G/D   G/F#
I think your craaaaaaaazy,          maybe
         (G)   Em     C  Cadd9  (E) G/D   G/F#
I think your craaaaaaaazy,          maybe
         (G)   Em     C  Cadd9  (E) G/D   G/F#
I think your craaaaaaaazy,          maybe
         (G)   Em     C  Cadd9  (E) G/D   G/F#
I think your craaaaaaaazy,          maybe

B7                   Em           C/A
    I will see you in,   in the next
life-eeeeeeeeeeeeeeeeeeeeeee
e-----------------------------------------3---------------------
B-------0-----0------------0--------------0-------------------
G-----0---0-----0--------0---0---0--------0----------------
D---2-------2----------2-------2---2------0-----------------
A-4------------------3--------------------x--------------------
E-----------------------------------------3-----------------------


(joeygallagher@hotmail.com)




---------------------------------
Radiohead Tabs @ Follow Me Around
www.followmearound.com
  development and support by
dmitry ivanov