rock
 
|tablatures   |lyrics   |discussion forums   |more tabs @ XGuitar.com

Radiohead tabs

Lurgee bass tab

Band: 	Radiohead
Song: 	Lurgee
Disc: 	Pablo Honey
Speed:	120 bpm
Tabber:	synesthesa@hotmail.com

If you just want to play the main riff, or make up your own variations or
whatever use this riff:
G|----------------|----------------|
D|----------------|----------------|
A|3-3-3-3-3-3-3-3-|3-2-----------2-|
E|----------------|----4-1---1-1---|
  1 + 2 + 3 + 4 +  1 + 2 + 3 + 4 +

which should last you up to the end of the vocals, the tab below is
close (well i hope so) to the recording in variations but i can't really
hear the bass at the end, so do whatever you can with the chord and root
notes i've given.

Intro:
  C		      Fsus2
  |			|
G|----------------|----------------|
D|----------------|----------------| (main riff) x1
A|3-3-3-3-3-3-3-3-|3-2-----------2-|
E|----------------|----4-1---1-1---|
  1 + 2 + 3 + 4 +  1 + 2 + 3 + 4 +

G|----------------|----------------|
D|----------------|----------------| (variation 1) x1
A|3-2-3-3-3-3-3-3-|3-2-----------2-|
E|----------------|----4-1---1-1---|
  1 + 2 + 3 + 4 +  1 + 2 + 3 + 4 +

main riff x1

G|----------------|----------------|
D|----------------|----------------| (variation 2) x1
A|3-3-2-3-3-3-2-3-|3-2-----------2-|
E|----------------|----4-1---1-1---|
  1 + 2 + 3 + 4 +  1 + 2 + 3 + 4 +


Verse 1:
G|----------------|----------------|
D|----------------|-----/5-5-5-5-5-| (variation 3) x1
A|3-3-3-3-3-3-3-3-|3-33/-----------|
E|----------------|----------------|
  1 + 2 + 3 + 4 +  1 + 2 + 3 + 4 +

main riff x1

G|----------------|----------------|
D|----------------|-----/5-5-5-5-3-| (variation 4) x1
A|3-3-3-3-3-3-3-3-|3-33/-----------|
E|----------------|----------------|
  1 + 2 + 3 + 4 +  1 + 2 + 3 + 4 +

G|----------------|----------------|
D|----------------|-----/5-5-5-5-3-| (variation 5) x1
A|5-3-3-3-3-3-3-3-|3-33/-----------|
E|----------------|----------------|
  1 + 2 + 3 + 4 +  1 + 2 + 3 + 4 +

variation 1 x1
main riff x2
variation 2 x1

Bridge:
G|----------------|----------------|
D|----------------|----------------| (variation 6) x4
A|3-3-3-2-3-3-2-3-|3-2-----------2-|
E|----------------|----4-1---1-1---|
  1 + 2 + 3 + 4 +  1 + 2 + 3 + 4 +

Verse 2: As verse 1, replace variations 3,4,5
with main riff or variation 2, more detail later...


Ending:
variations of main riff x4 more detail later...

then something like

G|----------------|----------------|
D|----------------|--------2-2-3-3-| link to ending x1
A|3-3-3-3-3-3-3-3-|3-3-5-5---------|
E|----------------|----------------|
  1 + 2 + 3 + 4 +  1 + 2 + 3 + 4 +

Am7
  |
G|----------------|----------------|
A|3-3-3-3-3-3-3-3-|3-3-2-2-----2-2-| ending riff 1 x1
D|----------------|--------3-3-----|
E|----------------|----------------|
  1 + 2 + 3 + 4 +  1 + 2 + 3 + 4 +

OK this bit's definetly wrong and i can't hear the rest because
of all the guitar stuff going on but here's the chords for the
end bit (from guitar book) so work something out

|ending riff 1	|
|Am7	|Am7	|Am7	|Am7	|

|Fsus2	|Fsus2	|Fsus2	|Fsus2	|

|C	|Fsus2	|C	|Fsus2	|

|C	|C	|Am7	|Am7	|

|Am7	|Am7	|Fsus2	|Fsus2	|

|Fsus2	|Fsus2	|C	|

Or root notes:

G|--|--|--|--|--|--|--|--|
D|--|--|--|--|--|--|--|--|
A|--|--|--|--|--|--|--|--|
E|5-|5-|5-|5-|1-|1-|1-|1-|

G|--|--|--|--|--|--|--|--|
D|--|--|--|--|--|--|--|--|
A|3-|--|3-|--|3-|3-|--|--|
E|--|1-|--|1-|--|--|5-|5-|

G|--|--|--|--|--|--|--|
D|--|--|--|--|--|--|--|
A|--|--|--|--|--|--|3-|
E|5-|5-|1-|1-|1-|1-|--|

Any questions comments corrections stuff like that or even stuff not
like that, email synesthesa@hotmail.com

Hopefully I'll be updating this soon. First though Im going to start
doing blowout and maybe my iron lung. anyway, that's  it.
  development and support by
dmitry ivanov