rock
 
|tablatures   |lyrics   |discussion forums   |more tabs @ XGuitar.com

Radiohead tabs

Life In A Glass House bass tab

Band:Radiohead
Song:life in a glass house
Album:Amnesiac
Bassist:colin greenwood
Tabbed by:ergodyne user

Note:colin uses an upright bass on this song

Bass starts at 00:20

Verse:

G--------------------------------------------------------
D--------------------------------------------------------
A--------------------------------------------------------
E--4--4--4--4-3--3--3--3--3-4--4--4--4--4-3--3--3--3--3-4

G--------------------------------------------------------
D--------------------------------------------------------
A--------------------------------------------------------
E--4--4--4--4-8--8--8--8--8-8--8--8--8--8-3--3--3--3--3-3

G--------------------------------------------------------
D--------------------------------------------------------
A--------------------------------------------------------
E--3--3--3--3-3--3--3--3--3--2---------------------------

Chorus:

G--------------------------------------------------------
D--------------------------------------------------------
A-------7---8--------------7h8---------------------------
E---5----------8------5--------8---8---------------------


Final:

G-----------------
D-----------------
A-----------------
E--\5-------------
  development and support by
dmitry ivanov