rock
 
|tablatures   |lyrics   |discussion forums   |more tabs @ XGuitar.com

Radiohead tabs

Knives Out bass tab

-> Radiohead
-> Knives Out
-> Amnesiac

Verse:

G|-------------------------------------------------|
D|-------------------------------------------------|
A|-------------------------------------------------|
E|-8-8-8-8-8--6-6-6-6-6-0-4-4-4-4-4-4-4-4-4-4-4-4--|

G|-------------------------------------------------|
D|-------------------------------------------------|
A|-------------------------------------------------|
E|-3-3-3-3-3-0-1-1-1-1-1--0-0-0-0-0-0-0-0--2h3-/8--|

Chorus:

G|----------------------------------------------------------------------|
D|----------------------------------------------------------------------|
A|-0-0-0-0-0------------------5-5-5-5-5-5-5-5--3-3-3-3-3-3-3-3-3-3-3----|
E|------------3-3-3-3-3-3-3-3-------------------------------------------|

G|----------------------------------------------------------------------|
D|----------------------------------------------------------------------|
A|----------------------------------------------------------------------|
E|-3-3-3-3-3-3-3-3-3-3-3-3-3-3-3-3--0-0-0-0-0-0-0-0-0-0-0-0-0-0-0-0-0-0-|



Thanks goes to jorgemp55@hotmail.com
I only submite it to MXTABS.net and translate it to english

#HePIReNd - ptnet
rizku@hotmail.com
  development and support by
dmitry ivanov