rock
 
|tablatures   |lyrics   |discussion forums   |more tabs @ XGuitar.com

Radiohead tabs

Just guitar tab

JUST

Intro:
e------------------------------------------------------------------------------
B--5---5--------8--8-8-7--7-7-7-7-x-10-10-10-----------------------------------
G--5---5-x-x-x--8--8-8-7--7-7-7-7-x-10-10-10-----------------------------------
D--5---5-x-x-x--8--8-8-7--7-7-7-7-x-10-10-10----------------------------------
A--3---3-x-x-x--6--6-6-5--5-5-5-5-x-8--8--8------------------------------------
E------------------------------------------------------------------------------

Riff 1-----------------------------------------------------------------------]

e-----------------------------------------------------10-11---13-14---16-17--\-
B------------------------------------------------------------------------------
G--x-x-x-x----5--5--7--8---10-11---13--14----16--17---7--8----10-11---13-14--\-
D--x-x-x-x-x2------------------------------------------------------------------
A--x-x-x-x----3--3--5--6---8--9----11--12----14--15----------------------------
E------------------------------------------------------------------------------

Verse Eb F(8ft) Am Ab

e------------------------------------------------------------------------------
B------------------------------------------------------------------------------
G--- Am ---- Ab ----------14--15--17--16--17--19-----------14--15--17--7--8--10
D-------------------------15----------17-------------------15----------8-------
A------------------------------------------------------------------------------
E-------------------------13----------15-------------------13----------6-------

.5 .5

e------------------------------------------------------------------------------
B------------------------------------------------------------------------------
G----5--7-7/----5-------5--7--7/-----5----4------5------8/---------------------
D--7----------7------6------------6---------5------4---------------------------
A---------------------------------------------5------4-------------------------
E------------------------------------------------------------------------------

Chorus:

Riff 2----------------------------------------]

e-----------------0------0----------------0------------------------------------
B-------------------------------------------1----------------------------------
G--9---9---\---------3----------------------------- Riff 2 -- Riff 1 ----------
D--10--10--\--4------------3--3---3----3---------------------------------------
A--10--10--\--4------------3--3---3----3---------------------------------------
E--8---8---\--2------------1--1---1----1---------------------------------------

T T T T

2nd Time

Trem.____________________________________________]

e------------------------------------------------------------------------------
B--5----7--8---10--11-------12----10---8----6---5------------------------------
G------------------13/------14/---12/--10/--8/--7/-----------------------------
D------------------------------------------------------------------------------
A------------------------------------------------------------------------------
E------------------------------------------------------------------------------

(Thom)Gtr.1

Part 1______________________________________________]

e--------------------------------------------------------------------------------------------
B--------------------------------------------------------------------------------------------
G-17--17--17-16--14-14-14-x-x--17--17--17-15--13-13-13-12/13-12-12-12-x-x-10/12-10-10-10-x-x-
D--------------------------------------------------------------------------------------------
A-15--15--15-14--12-12-12-x-x--15--15--15-13--11-11-11-10/11-10-10-10-x-x--8/10--8--8--8-x-x-
E--------------------------------------------------------------------------------------------

Repeat part 1

(Jon) Gtr.2

Part 2_____________________________________________]

e--------------------------------------------------------------------------------------------
B-17--17--17-15--13-13-13-x-x--16--16--16-15--13-13-13-11/13-11-11-11-x-x-13/15-13-13-13-x-x-
G--------------------------------------------------------------------------------------------
D-14--14--14-12--10-10-10-x-x--13--13--13-12--10-10-10--8/10--8--8--8-x-x-10/12-10-10-10-x-x-
A--------------------------------------------------------------------------------------------
E--------------------------------------------------------------------------------------------

Repeat part 2

-pick scrape-

e------------------------------------------------------------------------------
B------------------------------------------------------------------------------
G-4-4-4-4-3-3-3-3-2------------------------------------------------------------
D-5-5-5-5-4-4-4-4-3------------------------------------------------------------
A-5-5-5-5-4-4-4-4-3-----------------------------------------------^^^^^^^^^^^^-
E-3-3-3-3-2-2-2-2-1-----------------------------------------------^^^^^^^^^^^^-

.5

e------------------------------------------------------------------------------
B--12-11-10--------------------------------------------------------------------
G-----------12/--11-10-------10-12-10--10-12-10------- x2 --- Chorus ----------
D----------------------10h12---------------------------------------------------
A------------------------------------------------------------------------------
E------------------------------------------------------------------------------

(pitch shifter up one octave) (pitch shifter up two octaves)

Trem.______________________________________________________

e--8---10-11---13-14---16-17-----8---10-11---13-14---16-17----20-(3bars)--17\--
B------------------------------------------------------------------------------
G--5---7--8----10-11---13-14-----5---7--8----10-11---13-14---------------------
D------------------------------------------------------------------------------
A------------------------------------------------------------------------------
E------------------------------------------------------------------------------

e------------------------------------------------------------------------------
B--x--4--x--4----x-x----------------------------------------8-8-8-8--8-8-8-8---
G--x--3--x--3----x-x-----8--8-8-8-8--8-8--8-8-8--8-8--8--8--8-8-8-8--8-8-8-8---
D--x--2--x--2----x-x-----------------------------------------------------------
A--x--3--x--3----x-x-----------------------------------------------------------
E------------------------------------------------------------------------------

C Bb5 A5 Eb5

Riff 3---------------------------------------------------------]
e------------------------------------------8/\p6-------------------------------
B----------------------------------------8--------8/\p6--7-5-------------------
G-8p5------5-8p5-----5-8p5-----5-8p5-------------------------7-----------------
D-----8-/--------8/--------8/--------8/----------------------------------------
A------------------------------------------------------------------------------
E------------------------------------------------------------------------------

.5-----------------]
e------------------------------------------------------------------------------
B---------------------------------------6/-6-6-6-6-6-6-6-6-6-------------------
G--8p5-----5-8p5-----5-8p5-----5-8p5------------------------------ Riff 3------
D------8/--------8/--------8/--------8/----------------------------------------
A------------------------------------------------------------------------------
E------------------------------------------------------------------------------

e------------------------------------------------------------------------------
B------------------------------------------------------------------------------
G--8p5------8p5-----5--8p5-----------------------------------------------------
D------8/-------8/---------8/---\sl.-------------------------------------------
A------------------------------------------------------------------------------
E------------------------------------x-----------------------------------------

------------------------------------------------------------------------------------------------------

Unless stated otherwise, chords are played by guitar 1, and the
tabbed parts by guitar 2.

INTRO

  Guitar 1
  --------------------------------------------------------
  -5-5---5---8-8-8-----7---7---7---10-10------------------
  -5-5---5---8-8-8-----7---7---7---10-10------------------
  -5-5---5-x---8-8-x-x-7---7---7-x-10-10------------------
  -3-3---3-x---6-6-x-x-5-5-5-5-5-x-8--8-------------------
  --------------------------------------------------------

  Guitar 2
  --------------------------------------------------------
  --------------------------------------------------------
  -------------------------------x---x---x---x------------
  -------------------------------x---x---x---x------------
  ---------------------------------x---x---x--------------
  ---------------------------------x---x---x--------------
    trem picked
  --------------------------7-8--10-11--13-14---16-17\----
  --------------------------------------------------------
  --5---7-8--10-11--13-14---4-5---7-8---10-11---13-14\----
  --------------------------------------------------------
  --3---5-6---8-9---11-12---------------------------------
  --------------------------------------------------------

VERSE 1

   A5                      G#5
  Can't get the stink off, he's been hanging round for days

   Eb      F
  --------------------------------------------------------
  -8-9-11--10-11-13~--------------------------------------
  -8-------10-12-14---------------------------------------
  --------------------------------------------------------
  --------------------------------------------------------
  --------------------------------------------------------

   A5                 G#5
  Comes like a comet, suckered you but not your friends

   Eb      Bb
  -3-4-6--------------------------------------------------
  -4-------3--4-6-----------------------------------------
  ---------3--5-7-----------------------------------------
  --------------------------------------------------------
  --------------------------------------------------------
  --------------------------------------------------------

   One day he'll get to you.. ..      ho -     ly    cow
  --------------------------------------------------------
  -----.------------------.-------------------------------
  ---5-7--7b9---5~------5-7-7b8---5---4--------5-----7b9--
  -7----------7-------7---------6-------5--------4--------
  ----------------------------------------5--------4------
  --------------------------------------------------------

CHORUS 1

  You do it to yourself you do that's why it really hurts
  ----------------------------0----1------------------0---
  -----------------5---------------1--------------------1-
  -----------------5--------3---3--2----------------------
  -----------------5--------4------3----------------------
  -----------------3--------4------3----------------------
  --------------------------2------1----------------------

REPEAT INTRO

VERSE 2 - Play the same as verse 1 but with straight A and
          G# chords.

CHORUS 2

BRIDGE

   Em   D      A   C   Em              D          A     C
  --------------------------(12)--------------------------
  -5--7-8--10--10b11~--12--------10----8-----7----5-------
  ---------------------14b16-----12b14-10b12-9b11-7b9r8b9-
  --------------------------------------------------------
  --------------------------------------------------------
  --------------------------------------------------------

    Am                     G#                Eb
  --------------------------------------------------------
  --5--5-----3---1-1-------4--4----3---1-1----------------
  --5--5--5--4-x-2-2-x-x---5--5-x--3-x-1-1---3h5-3--3-----
  -------------------------------------------5h6-5--5-x-x-
  --------------------------------------------------------
  --------------------------------------------------------

    Bb              Am                   G#
  --1/3-1---1---------------------------------------------
  --1/3-1-1-1--x-x--5--5----3---1-1------4-4---3----1-1---
  -------------x-x--5--5--x-4-x-2-2-x-x--5-5-x-3--x-1-1-x-
  --------------------------------------------------------
  --------------------------------------------------------
  --------------------------------------------------------

    guitar 1 & 2 (with distortion)
  --------------------------------------------------------
  --------------------------------------------------------
  ------------------.-------------------------------------
  --5-5-5-5-4-4-4-4-3-------------------------------------
  --5-5-5-5-4-4-4-4-3-------------------------------------
  --3-3-3-3-2-2-2-2-1-------------------------------------

CHORUS 3 - Instrumental, with pickscrape noise and fill,

  guitar 3 (with distortion)
  --------------------------------------------------------
  ----------------1----1----------------------------------
  --5-4---3-------2h3--2----------------------------------
  --------------------------------------------------------
  --------------------------------------------------------
  --------------------------------------------------------

REPEAT INTRO

REPEAT INTRO - guitar 2 up 2 octaves (whammy pedal?)

OUTRO - guitar 2 sustains last note of previous part

  guitar 1 plays C, Bb, Am, Eb

  guitar 2 (clean)
  --------------------------------------------------------
  --------------------------------------------------------
  --x--x--x--8------8~----x-x----8------8-----------------
  --x-----x--8------8-----x-x----8------8-----------------
  -----------7--x-x-7----------x-7--x-x-7-----------------
  -----------8------8------------8------8-----------------

OUTRO SOLO - guitar 2 (w/ distortion)

  --------------------------------------------------------
  --------------------------------------------------------
  --------------------------------------------------------
  ----------.-------.----.----------.-------.----.--------
  -(10b)13-13---13-13---13------13-13---13-13---13--------
  --------------------------------------------------------

  --------------------------------------------------------
  --------------------------------------------------------
  --------------------------------------------------------
  ----------.-------.----.--------------------------------
  ------13-13---13-13---13------13-13-13-13-13-13-13------
  --------------------------------------------------------

  --------------------------------------------------------
  --------------------------------------------------------
  --------------.------------------.------------------.---
  -(10b)13r10-8-10---10-10b13r10-8-10---10-10b13r10-8-10--
  --------------------------------------------------------
  --------------------------------------------------------

  -------------------8b10r8-6-----------------------------
  ----------------------------10b11r10-8------------------
  ---------------.-----------------------8----------------
  -10-10b13r10-8-10------------------------10-------------
  --------------------------------------------------------
  --------------------------------------------------------

  --------------------------------------------------------
  --------------------------------------------------------
  --------------.------------------.------------------.---
  -(10b)13r10-8-10---10-10b13r10-8-10---10-10b13r10-8-10--
  --------------------------------------------------------
  --------------------------------------------------------

  --------------------------------------------------------
  --------------------------------------------------------
  ---------------.---10b11-11-11-11-11-11-11-11-11-11-----
  -10-10b13r10-8-10---------------------------------------
  --------------------------------------------------------
  --------------------------------------------------------

  --------------------------------------------------------
  --------------------------------------------------------
  --------------.------------------.------------------.---
  -(10b)13r10-8-10---10-10b13r10-8-10---10-10b13r10-8-10--
  --------------------------------------------------------
  --------------------------------------------------------

  -------------------8b10r8-6-----------------------------
  ----------------------------10b11r10-8------------------
  ---------------.-----------------------8----------------
  -10-10b13r10-8-10------------------------10-------------
  --------------------------------------------------------
  --------------------------------------------------------

  --------------------------------------------------------
  --------------------------------------------------------
  --------------.------------------.----------------------
  -(10b)13r10-8-10---10-10b13r10-8-10---10-10b13r10-8b10\-
  --------------------------------------------------------
  --------------------------------------------------------
  --------------------------------------------------------


                            USED CHORDS

  A    577655    A5   577xxx    Bb   x1333x    C    x3555x
  D    x5777x    Eb   x6888x    Em   022000    F    133211
  F#7  2443x0    G    3x0033    G#   466544    G#5  466xxx


------------------------------------------------------------------------------------------------------

an addition...

--5---------------------4------------------------------6-------8
--5---------------------4--------------------------8-9---10-11--
--5---------------------5--------------------------8-----10-----
--7---------------------6--------------------------8-----10-----
--7---------------------6--------------------------6-----8------
--5---------------------4---------------------------------------

Can't get the stink off, he's been hanging round for days

--5----------------4-----------------------------6------
--5----------------4-------------------------8-9-------6
--5----------------5-------------------------8-----7-8--
--7----------------6-------------------------8-----8----
--7----------------6-------------------------6-----8----
--5----------------4-------------------------------6----

Comes like a comet, suckered you but not your friends
   
----------------------------------------------------------
-------.------------------.-------------------------------
-----5-7--7b9---5~------5-7-7b8---5---4--------5-----8b9--
---7----------7-------6---------6-------5--------4--------
------------------------------------------5--------4------
----------------------------------------------------------

One day he'll get to you.. ..      ho -     ly    cow


------------------------------------------------------------------------------------------------------

Bridge Section   *2:06*

   Am:577555				 Ab:466544

1:
2: 17   17  17   15   13   13   13  x x  16   16  16   15   13   13   13
3: 				    x x
4: 14   14  14   12   10   10   10  x x  13   13  13   12   10   10   10
5:
6: Gt 2   THIS IS PLAYED IN EXACT UNISON WITH THE GUITAR(3) BELOW

1:
2:
3: 17   17  17   16   14   14   14  x x  17   17  17   15   13   13   13
4:				    x x
5: 15   15  15   14   12   12   12  x x  15   15  15   13   11   11   11
6: Gt 3   THIS IS PLAYED IN EXACT UNISON WITH THE GUITAR(2) ABOVE (deja vu?)

            Eb:x6888x          Bb:688766
1:
2: 11 / 13  10   10   10  x x  13 / 15  13  13  13  x x
3:			  x x			    x x
4: 8  / 10  8    8    8   x x  10 / 12  10  10  10  x x
5:
6: Gt 2   ONCE AGAIN, PLAYED IN UNISON WITH GUITAR 3

1:
2:
3: 12 / 13  12   12   12  x x  10 / 12  10  10  10  x x
4:                        x x 			    x x
5: 10 / 11  10   10   10  x x  8  / 10  8   8   8   x x
6: Gt 3   PLAYED WITH GUITAR 2

   Am:577555				 Ab:466544

1:
2: 17   17  17   15   13   13   13  x x  16   16  16   15   13   13   13
3: 				    x x
4: 14   14  14   12   10   10   10  x x  13   13  13   12   10   10   10
5:
6: Gt 2   THIS IS PLAYED IN EXACT UNISON WITH THE GUITAR(3) BELOW

1:
2:
3: 17   17  17   16   14   14   14  x x  17   17  17   15   13   13   13
4:				    x x
5: 15   15  15   14   12   12   12  x x  15   15  15   13   11   11   11
6: Gt 3   THIS IS PLAYED IN EXACT UNISON WITH THE GUITAR(2) ABOVE

   G:355433    Gb:244322   F:133211
1:
2:
3: 4  4  4  4  3  3  3  3  2
4: 5  5  5  5  4  4  4  4  3         
5: 5  5  5  5  4  4  4  4  3
6: 3  3  3  3  2  2  2  2  1

  development and support by
dmitry ivanov