rock
 
|tablatures   |lyrics   |discussion forums   |more tabs @ XGuitar.com

Radiohead tabs

I Might Be Wrong guitar tab

Author/Artist: Radiohead
Title: I Might Be Wrong
Album: Amnesiac
Transcribed by: Kevin Shelley
Email: shelley.13@osu.edu

Just a couple basic riffs here..quite a few variations though. It's all in drop
D tuning. Enjoy.
-------------------|-------------------|-------------------|------------------
-------------------|-------------------|-------------------|------------------
-------------------|-------------------|-------------------|------------------
---0-----0---0---0-|---0-----0---0---0-|---0-----0---0---0-|---0-----0---0--0-
-------------------|-------------------|-------------------|------------------
-0---3/4---3-------|-0---3/4---3-------|-0---3/4---3----3--|-0---3/4---3---3--
 3/4=slide from 3 to 4 quickly                                                
-------------------|-------------------|-------------------|------------------
-------------------|-------------------|-------------------|------------------
-------------------|-------------------|-------------------|------------------
---0-----0---0---0-|---0-----0---0---0-|---0-----0---0---0-|---0-----0---0--0-
-------------------|-------------------|-------------------|------------------
-0---3/4---3-------|-0---3/4---3-------|-0---3/4---3-------|-0---3/4---3------

-------------------|-------------------|-------------------|------------------
---------------------|-------------------|-------------------|------------------
-------------------|-------------------|-------------------|------------------
---0-----0---0---0-|---0-----0---0---0-|---0-----0---0---0-|---0-----0--------
-------------------|-------------------|-------------------|------------------
-0---3/4---3---3---|-0---3/4---3---3---|-0---3/4---3---3---|-0---3/4---3---3-/
"I might be wrong"..								    slide up
-------------------|-------------------|-------------------|------------------
-------------------|-------------------|-------------------|------------------
-------------------|-------------------|-------------------|------------------
---0---0---0---0---|---0---0---0---0---|---0-----0---0---0-|---0-----0---0---0
-------------------|-------------------|-------------------|------------------
-8-\-3---3---3---/-|-8-\-3---3---3-----|-0---3/4---3---3---|-0---3/4---3---3--
slide down                                                                   
-------------------|-------------------|-------------------|------------------
-------------------|-------------------|-------------------|------------------
-------------------|-------------------|-------------2---2-|------------------
---0-----0---0---0-|---0-----0---0---0-|---0-----0---------|---0-----0---0---0
-------------------|-------------------|-------------------|------------------
-0---3/4---3---3---|-0---3/4---3---3---|-0---3/4---3---3---|-0---3/4---3---3--
						    "I used to think.."
-------------------|-------------------|-------------------|------------------
-------------------|-------------------|-------------------|------------------
-------------2-----|-------------------|-------------------|---------------3--
---0-----0-------0-|---0-----0---0---0-|---0---0---0---0---|---0---0---0------
-------------------|-------------------|-------------------|------------------
-0---3/4---3---3---|-0---3/4---3---3---|-8-\-3---3---3---/-|-8-\-3---3---3----

-------------------|-------------------|-------------------|------------------
-------------------|-------------------|-------------------|------------------
-------------------|-------------------|-------------------|------------------
---0-----0---0---0-|---0-----0---0---0-|---0-----0---0---0-|---0-----0---0---0
-------------------|-------------------|-------------------|------------------
-0---3/4---3---3---|-0---3/4---3---3---|-0---3/4---3---3---|-0---3/4---3---3--

-------------------|-------------------|-------------------|------------------
-------------------|-------------------|-------------------|------------------
-------------------|-------------------|-------------------|------------------
---0-----0---0---0-|---0-----0---0---0-|---0-----0---0---0-|---0-----0---0---0
-------------------|-------------------|-------------------|------------------
-0---3/4---3---3---|-0---3/4---3---3---|-0---3/4---3---3---|-0---3/4---3---3--

-------------------|-------------------|-------------------|------------------
-------------------|-------------------|-------------------|------------------
-------------------|--3---------2------|--5---------3------|--3--------3---2h3
---0-----0---0---0-|-------------------|-------------------|------------------
-------------------|-------------------|-------------------|------------------
-0---3/4---3---3---|5----5----3----3---|7----7----5----3---|5---3p0---5---3---
			  "Let's go down the waterfall"..
-------------------|-------------------|-------------------|------------------
-------------------|-------------------|-------------------|------------------
--3---------10-----|---9--------2------|--3----3----3----3-|--3----3----3----3
-------------------|-------------------|-------------------|------------------
-------------------|-------------------|-------------------|------------------
5----5---12---12---|10---10---3----3---|5----3----5----5---|5----3----5----5--

After the first chorus, go right back into the main verse riff.  After the
second chorus, play this before going back into the verse.  
-------------------|-------------------|
-------------------|-------------------|
---2----2----2---2-|---2----2----2---2-|
-------------------|-------------------|
-------------------|-------------------|
-3----2----3---3---|-3----2----3---3---|

That's all the basic progressions and variations. Just listen for the changes. 
Now for the bridge/solo bit.  

-1-----------------|---1----0----------|---1---------------|-----1------------
-3-----------------|----------1--------|---3---------------|-------------5\---
-2-----------------|-2----------0------|---2---------------|---3--------------
-0-----------------|-------------------|-0-----------------|-0---------5------
-------------------|------3------------|-------------------|---------3--------
-------------------|-------------------|-------------------|------------------
let ring					    let ring			  slide down
-------------------|-------------------|-------------------|------------------
-3-----------------|-----3--------1----|-------------------|------------------
-2-----------------|-------2--------2--|-------------7-----|------------------
-3-----------------|---3--------2------|-------------------|------------------
-1-----------------|-1--------0--------|-------------------|------------------
-------------------|-------------------|--3--/---5---5-----|------------------
let ring					    slide up
1------------------|-----1-------------|-------------------|------------------
3------------------|------------5\-----|-3-----------------|-----3--------1---
2------------------|---3---------------|-2-----------------|-------2--------2-
0------------------|-0--------5--------|-3-----------------|---3--------2-----
-------------------|--------3----------|-1-----------------|-1--------0-------
-------------------|-------------------|-------------------|------------------
let ring			     slide down let ring
-------------------|-------------------|-------------------|------------------
-------------------|-------------------|-------------------|------------------
--------------7----|-------------------|-------------------|------------------
--------------0----|-------------------|-0-----------------|------------------
-------------------|-------------------|-------------------|------------------
-3--/----5----8----|-------------------|----3--------------|------------------
slide up		  let ring


__________________________________________________________________


Radiohead - I Might Be Wrong / I Could Be Wrong

Tabbed by steve
rageboy@pacbell.net

I only have the live version of this track, so it was hard to
pick out the nuances, especially during the chorus. Correct me
if I'm wrong, but I'm pretty sure it's perfect. 
Have fun!

Dropped D Tuning , 4/4 time


Main Riff
e |------------------------------------|
B |------------------------------------|
G |------------------------------------|
D |---0----0-----0---0-----------------|
A |------------------------------------|
D |-0---3b5-3------3-------------------|

You could just slide up to the F instead of bending. I have never 
seen them play this song live, and I can't really tell how they 
do it with the quality of my version of the song.

Main Riff variations:

e |------------------------------------|
B |------------------------------------|
G |-------------0--2-------------------|
D |---0----0---------------------------|
A |------------------------------------|
D |-0---3b5-3--------------------------|

e |------------------------------------|
B |--------------1---------------------|
G |-----------------2------------------|
D |---0----0---------------------------|
A |------------------------------------|
D |-0---3b5-3--------------------------|


Chorus, if you can call it that:

"Let's go down the waterfall..."

e |------------------------------------------------------
B |------------------------------------------------------
G |----3----2-----5\-------------------------------------
D |----------------------------0-----0---0---------------
A |-1-----0----3\----------------------------------------
D |-----------------------0--5---5b7---5---3--0--5--/7---

"Have ourselves a good time..."

e ----------------------------------------------------------|
B ----------------------------------------------------------|
G ----------------------------------------------------------|
D ----15-----14----10--------0-----0---0--------0-----0---0-|
A ----------------------------------------------------------|
D /12-----10-----7------0--5---5b7---5-----0--5---5b7---5---|


The coolest breakdown Radiohead has ever written:

     Dm                      C        A#maj7
e |---------------------------------------------
B |-------6------------6--------5----------3----
G |-----7---7------------7--------5------2------
D |---7--------7-----7--------5--------3--------
A |-5--------------5--------3--------1----------
D |---------------------------------------------

                       Gm
e ---------------------------------------------
B -----2---------------------------------------
G -------3------2-0---------3-------------3----
D ---3--------3-----------5---5---------5---5--
A -1--------0-----------5-------------5--------
D -------------------/5-----------0-5----------

    Dm                    C        A#maj7
e ---------------------------------------------
B ---------6-------6---------5-----------------
G -------7-7---------7---------5--------2------
D -----7---------7---------5--------3-3--------
A ---5---------5---------3--------1------------
D -0-------------------------------------------

                
e ----------------------------------------------------------------|
B ----------------1-----------------------------------------------|
G -------2----------2---------------------------------------------|
D -----3---3----3------------0-----0---0---------0-----0---0------|
A -0-1--------0---------------------------------------------------|
D ----------------------0--5---5b7---5----3-0--5---5b7---5----5-0-|


__________________________________________________________________


RADIOHEAD - I Might Be Wrong

Tabbed by Tony Raffini
raffini@icehouse.net

This song was kinda easy to tab, but the rhythm was a little 
tricky, it is prolly wrong, but i know i am at least on the 
right track. The riffs are indicated by letter (A-E) and
I show where to play them at the bottom. The letter 
corresponds with the particular lyric. Pretty easy to figure out. 
Enjoy.


RIFF (A) 
e----------------------------------------------------
B----------------------------------------------------
G-------2-----2-----2-----2-----2-----2-----2-----2--
D-------0-----0-----0-----0-----0-----0-----0-----0--
A----------------------------------------------------
D---0------2s3---2-----2-----0-----2s3---2-----2-----

RIFF (B)
e----------------------------------------------------
B----------------------------------------------------
G-------3-----2-----2-----2-----3-----2-----2-----2--
D-------0-----0-----0-----0-----0-----0-----0-----0--
A-0s1-1--------------------0s1-1---------------------
D----------3-----3-----2-----------3-----3-----2-----

RIFF (C)
e----------------------------------------------------
B----------------------------------------------------
G-------3-----3-----2-----2-----3-----3-----3-----3--
D-------0-----0-----0-----0-----0-----0-----0-----0--
A---1------1-----0-----0-----3-----3-----1-----1-----
D----------------------------------------------------

RIFF (D)
e---1----1----1----1----0----0---0-------------------
B---1----1----1----1----1----1---1-------------------
G---2----2----2----2----2----2---2----3-----3-----3--
D---3----3----3----3----2----2---2----0-----0-----0--
A--------------------------------0-------0s1s3s1-----
D----------------------------------------------------

RIFF (E)
e----------------------------------------------------
B----------------------------------------------------
G-------3-----2-----3-----3-----3-----2-----3-----3--
D-------0-----0-----0-----0-----0-----0-----0-----0--
A---1-1----0s3s0s1-----1----1-1----0s3s0s1-----------
D----------------------------------------------------



A : I might be wrong
A : I might be wrong
B : I could have sworn I saw a light 
A : coming on

A : I used to think
A : I used to think
B : There is no future left at all
A : I used to think

A : Start again 
A : begin again
A :
A : 

C : Let's go down the water
D : fall
E : Have ourselves a good time It's nothing at 
D : all          Nothing at 
A : all
A :

A : What would I do?   
A : What would I do?
B : If I did not have 
A : you?

A : Start again 
A : begin again
A :
A : 

C : Let's go down the water
D : fall
E : Have ourselves a good time It's nothing at 
D : all          Nothing at 
A : all          Nothing at   
A : all
A :
A :
  development and support by
dmitry ivanov