rock
 
|tablatures   |lyrics   |discussion forums   |more tabs @ XGuitar.com

Radiohead tabs

I Can't bass tab

-- I CANīT .. Radiohead .. Bass line --
 

This file done by: XAV .. petrj@click.cz
 
Intro..
 
Then 2x Verse 1:
G|---------------|---------------|---------------|--7--7--7-5-----|
D|---------------|---------------|----------5-7--|------------7-5-|
A|----------2--2-|--3--2--3-3--2-|--5--5--7------|----------------|
E|--3--3--5------|---------------|---------------|----------------|
 
Bridge:
G|------------------|------------------|-------------------|
D|------------------|------------------|-------------------|
A|------------------|------------------|--33333233323232\--|
E|--0-0--3-5--2--3--|--0-0--3-5--2--3--|-------------------|
 
2x Verse 2:
G|----------------|---------------|---------------|---------------|
D|----------------|---------------|-2-2-0-2-2-4-2-|-7--7--9-7-----|
A|--------------2-|-3-3-2-3-3-2-3-|---------------|-----------9-7-|
E|--3-3-5-3-3-5---|---------------|---------------|---------------|
 
2x verse 1
bridge
 
2x verse 2
1x verse 1
1x :
G|---------------|---------------|--------------|---------------|
D|---------------|---------------|--------------|---------------|
A|----------2--2-|--3--2--3-3--2-|-2--2--3-2--2-|-5--5--9-7-----|
E|--3--3--5------|---------------|--------------|-----------9-7-|
 
Bridge
 
4x verse 3
G|--5-5-2-5-5-4-5-|---------------|---------------|---------------|
D|----------------|---------------|-2-2-0-2-2-4-2-|-7--7--9-7-----|
A|----------------|-3-3-2-3-3-2-3-|---------------|-----------9-7-|
E|----------------|---------------|---------------|---------------|
 
BASS SOLO:
7x :
||G|-----------------|------------------------|
||D|-----------------|-------------------10-9-|
||A|-------------2-2-|-3-3-3-5-/-7-10-10------|
||E|-3-3-3-3-3-/-----|------------------------|
 
Then:
G|-----------------|--------------------||
D|-----------------|--------------------||
A|-------------2-2-|-3-3-2-3-2-3-2-3-2\-||
E|-3-3-3-3-3-/-----|--------------------||
 
2x verse 2
2x verse 3
 
end.
  development and support by
dmitry ivanov