rock
 
|tablatures   |lyrics   |discussion forums   |more tabs @ XGuitar.com

Radiohead tabs

Dollars & Cents guitar tab

RADIOHEAD
Dollars and Cents
tabbed: Jasper@hotmail.com

pretty simple-

g----------------------10--12--------------------------
d----------------10--12-------------------------------
a---------10--12---------------------------------------
e-10---13----------------------------------------------   

D-walk- repeat twice

g----------------------08-10--------------------------
d----------------08--10-------------------------------
a---------08--10---------------------------------------
e-08---11----------------------------------------------   

b walk -repeat twice

Thats pretty much it! You got yourself "Dollars and Cents"
  development and support by
dmitry ivanov