rock
 
|tablatures   |lyrics   |discussion forums   |more tabs @ XGuitar.com

Radiohead tabs

Bullet Proof.. I Wish I Was bass tab

Intro & Verse

           Am7         Cmaj7       Bm          Dsus2
G   ------------------------------------------------||
D   -----------------------------------------------*||
A   -5-3-2-0---0---0-2-3---3---3-5-2---2---2-3-5---*||
E   ------------------------------------------------||
     Dsus2
G   -----------------||----------------------
D   -----------------||---repeat until-------
A   -5-------5----5--||----chorus------------
E   ------5----------||----------------------


Chorus
            G          Bm         Cadd9
G   ----------------------------------------------------
D   ----------------------------------------------------
A   -5-3-2-----------0-2---2--2-5-3--31-----3--3--3-2-0--
E   --------3--3---3--------------------3---------------
     G          Bm         Cadd9        Bb6
G   ---------------------------------------------
D   ---------------------------------------------
A   ----------0-2---2--2-5-3--3-------2-1--------
E   -3--3---3------------------------------------
  development and support by
dmitry ivanov