rock
 
|tablatures   |lyrics   |discussion forums   |more tabs @ XGuitar.com

Radiohead tabs

Bones guitar tab

BONES

(pick A7 chord)

(verse)

 Asus4

e --0---0--0--0--0--0--0--0--0--
B --3---5--5--5--5--5--5--5--5--
G --2---------------------------
D --2---------------------------
A --0---------------------------
E ------------------------------

(chorus)

e ---------------------------------------------------------------------
B ---------8-0---7-(0)---5----2-------3----------3---------------------
G -------------------------0--2----2--4----2--2--4----2--2--4----2-----
D -------------0--------------2----2--4----2--2--4----2--2--4----2--2--
A -------2-------------2------0----0--0----0--0--0----0--0--0----0--0--
E --3-2--0-----2-------3-----------------------------------------------

(Peter Pan...)

    D      G       F#/G     Asus4  Bm/A A
e --2---------------------------------------------------------------------
B --3--3-3-3---3-------3-----3-----3-----------2-2-3----------7----7\5----
G --2--2-2-0---0---0-0-0--0--2---2-4----2-2-4--2-2-4-----2-------------4--
D --0--0-0-0---0---0-0-0--0--2---2-4----2-2-4--2-2-4--2--2------0---------
A ---------2---2-------------0---0-0--0-0-0-0--0-0-0--0--0----------------
E ---------3---3---2-2-2--------------------------------------------------

e ----------------------------------------------
B ---------------------3--------3--2-2-3--------
G ----3-3-3-2----2---2-4----2-2-4--2-2-4-----2--  then chorus x2
D --x---------4--2---2-4----2-2-4--2-2-4--2--2--
A --x------------0---0-0--0-0-0-0--0-0-0--0--0--
E ----------------------------------------------

e -------------------         ------------------          -------------------------
B --5---3---2--------         ---8---10---12----          -------------------------
G --7/--5/--4/\---2--  Riff 1 --10/--12/--14/\--  Riff1   ---------------2---------
D -------------------         ------------------          ---------------2--2--4/--
A -------------------         ------------------          ---------------0--0------
E -------------------         ------------------          --0----2----3------------

e ------------------------------------------0-----0-----0-----0--
B ------------------------------------------0-----0-----0-----3--
G --2--2------2--4---4/-(4)-(4)---\---2-----0-----2-----0-----2--
D --2--2--4/--2-----------------------------2-----2-----0-----2--
A --0--0------0-----------------------------2-----------2-----0--
E ------------------------------------------0-----2-----3--------

I don't wannt a be crippled cracked 
shoulders wrists knees and back 
ground to dust and ash 
crawling on all fours. 

when you've got to feel it in your bones. 

Now i can't climb the stairs 
pieces missing everywhere 
prozac painkillers. 

when you've got to feel it in your bones. 

and i used to fly like Peter Pan 
all the children flew when i touched their hands
  development and support by
dmitry ivanov