rock
 
|tablatures   |lyrics   |discussion forums   |more tabs @ XGuitar.com

Radiohead tabs

Bones bass tab

Artist: RADIOHEAD	
Album: The Bends
Song: Bones
Tunning: EADG
Tabbed by Guillaume Tixhon


G :------------------------------------------------|
D :------------------------------------------------|
A :-5-55---------------------------------------4---|
E :------3-33-2-0-2/-5--5-7-5--5-0-2/-5-7-5--5---5-|

G :------------------------------------------------|
D :------------------------------------------------|
A :-5-55-------------------------4-------------4---|
E :------3-33-2-0-2/-5--5-7-5--5---5--5-7-5--5---5-|

G :-------------------------------------------------------|
D :-------------------------------------------------------|
A :---------------------------------------------------4---|
E :-0-0-0-0-2-2-2-2-3-3-3-3-5-7-5--5-0-2/-5--5-7-5--5---5-|

G :-------------------------------------------|
D :-------------------------------------------|
A :-------------------------4-------------4---|
E :-0----2----3----5-7-5--5---5--5-7-5--5---5-|
  development and support by
dmitry ivanov