rock
 
|tablatures   |lyrics   |discussion forums   |more tabs @ XGuitar.com

Radiohead tabs

Blow Out guitar tab

BLOW OUT

(main riff)

e -------------------------------------------------------------------
B -------------------------------------------------------------------
G -------------------------------------------------------------------
D --16---16--16---16--16---16---16---16---16--16---16--16---16---16--
A --14---14--14---14--14---14---14---14---14--14---14--14---14---14--
E --12---12--12---12--12---10---10---12---12--12---12--12---10---10--


e --3---5--5-----3---5--5------
B --3---5--5-----3---5--5---0--
G --4---6--6-----4---6--6---4--
D --5---7--7-----5---7--7------	repeat
A --5---7--7-----5---7--7------
E --3---5--5-----3---5--5------


(fill-ins used during and in between the playing of the riff)

e -----------|-------------5--|---------------------|------------
B --6h7p6----|-------------5--|---------------------|------------
G --------7--|-----/4----4/6--|---4-/-2-(let ring)--|------------
D -----------|-----/5----5/7--|---------------------|------------
A -----------|--/4-/5----3/7--|---------------------|------------
E -----------|--/2-/3----3/5--|---------------------|-3~--2~--0--

(chorus)

e --4--2--4--2--4--2---4~-4~-4~-4--2------2--3--2--3--2--3--2--3--2--3--2--3--2--
B --2--2--2--2--2--2---2--2--2--2--2------0--0--0--0--0--0--0--0--0--0--0--0--0--
G --2--2--2--2--2--2---2--2--2--2--2------0--0--0--0--0--0--0--0--0--0--0--0--0--
D --2--2--2--2--2--2---2--2--2--2--2------2--2--2--2--2--2--2--2--2--2--2--2--2--
A --0--0--0--0--0--0---0--0--0--0--0------3--3--3--3--3--3--3--3--3--3--3--3--3--
E -------------------------------------------------------------------------------

(main riff)

(also insert)

e ----------------------
B ----------------------
G ----------------------
D ---------------5---7--
A -------5---7----------
E ----------------------

(played underneath solo at end)

e --------------------------------------------------------------------------
B --------------------------------------------------------------------------
G --------------------------------------------------------------------------
D --------------------------------------------------------------------------
A --7-5-7---5---7-----5--7-5-7--5---7---5-----------------------------------
E ------------------------------------------5-3-5---3---5---3--5-3-5--3--5--

e -------------------------------------------------------------------
B -------------------------------------------------------------------
G -------------------------------------------------------------------
D ----------------------------5--------------------------------------
A --7-5-7---5---7---5--7-5-7----7------------------------------3-----
E -----------------------------------5-3-5---3---5---3--5-3-5-----5--

In my mind
And nailed into my heels
All the time
Killing what I feel
And everything I touch turns to stone
(All wrapped up in cotton wool, all wrapped up and sugar coated.)

I am fused
Just in case I blow out
I am glued
Just in case I crack out
And everything I touch turns to stone
Everything I touch turns to stone
  development and support by
dmitry ivanov