rock
 
|tablatures   |lyrics   |discussion forums   |more tabs @ XGuitar.com

Radiohead tabs

Black Star bass tab

Band – Radiohead
Song - Black Star
Album – The Bends
Bassist – Colin Greenwood
By – blink1skate2@hotmail.com

I love the bass/drum verse in this song
The intro sorta ‘fades in’ so just come in whenever you feel like

INTRO
      D      A	   D
G|------------------------------
D|------------------------------	repeat until appropriate and
A|----5-5-5----------5---3-2-0--	finish on the A
E|-----------5—5-5-5------------

VERSE 1 X 2 – I get home from work...
    G      C      G/B    D      Em          Em
G|---------------------------------------------------------|
D|---------------------------------------------------------|
A|---------3-3-3--2-2-2--5-5-5--7---7-7h9-7---7---7-7h9-7--|
E|--3-3-3-------------------------7---------7---7----------|

PRE-CHORUS – what are we coming to...
    C 		   G/B      D
G|-------------------------------------|
D|-------------------------------------|
A|--3-3-3-3-3-3-3-3--2-2-2-2--5-5-5-5--|
E|-------------------------------------|

CHORUS – blame it on the black star...
    Am              C
G|-----------------------------------|
D|-----------------------------------|
A|--------------0-2-3-3-3-3-3-3-3-3--|
E|--5-5-5-5-5-5----------------------|	X 2

    G
G|------------------------------|
D|------------------------------|
A|---------------------------5--|
E|--3-3-3-3-3-3-3-3-3-3-3-3-----|

VERSE X 2
PRE-CHORUS
CHORUS
INTRO X 3
VERSE X 2 (bass solo!!!)
PRE-CHORUS
CHORUS
INTRO to fade out
  development and support by
dmitry ivanov