rock
 
|tablatures   |lyrics   |discussion forums   |more tabs @ XGuitar.com

Radiohead tabs

Airbag guitar tab

AIRBAG

(riff 1)

e -----------------------------------------------------------------------7--
B -----------------------------------------------------------------------5--
G -----------------------------------------------------------------------6--
D -----------------------------------------------------------------------7--
A --------------------------------------------------------------------------
E --0--1--8--7--9--5--0--1--8--7--5--9--12--13--8--7--9--5--0--1--8--7------

(riff 2)

e ---------------------
B ---------------------
G ---------------------
D --14-12-11-12-11-11--
A ---------------------
E ---------------------

(verse)

e --0---0---0---0--0---0--0---0--0---0--0--
B --0---0---0---0--0---0--0---0--0---0--0--
G --6---8---7---6--7---6--6---7--6---7--6--
D --7---7---6---6--6---6--6---6--6---6--6--
A -----------------------------------------
E -----------------------------------------

(riff 3)

e --------------------------------------------------5--7--7/--7--5------------
B --10--9--7--7/--6---3---5/--3-2---10--9--7--7/--6----------------6--5/-3-2--
G ----------------------------------------------------------------------------
D ----------------------------------------------------------------------------
A ----------------------------------------------------------------------------
E ----------------------------------------------------------------------------
  development and support by
dmitry ivanov