rock
 
|tablatures   |lyrics   |discussion forums   |more tabs @ XGuitar.com

Radiohead tabs

Airbag bass tab

Radiohead
"Airbag"
amlutz@csbsju.edu
 
The bassist plays variations of this throughout
the entire song.  (riffs within the key of Em or Gmaj)
|---------|---------|---------|---------|
|---------|---------|---------|---------|
|---------|---3---3-|---------|---3--3--|
|-2-0-3-0-|-3-------|-0-2-0-3 |---------|

Just listen to the cd to figure out the exact riffing
patterns...It's easy to figure out.  I don't have time to
tab the whole thing out...sorry.

Here's the basic pattern during the chorus...


|---------|--------|---------|
|---------|--------|---------|
|---0---0-|--0-----|--0------|
|-3---3---|-3--0-3-|-3---0-3-|



Now, you really needed my help for this one?
Easy, but very good song.
  development and support by
dmitry ivanov