rock
 
|tablatures   |lyrics   |discussion forums   |more tabs @ XGuitar.com

Radiohead tabs

A Wolf At The Door guitar tab

Radiohead - A Wolf at the Door
Tabbed By: Thious
Email: thious@caramail.com

Tuning: Standard (E A D G B E)

A song with a strange atmosphere.. don't you think?


Intro/Verse

E|------------------------------------------------------------------------------||
B|-------6-----------5-----------4-----------3-------------3------------2-------||
G|-----7---7-------7---7-------3---3-------3---3---------2---2--------2---2-----||
D|---7-------7---7-------7---5-------5---5-------5-----2-------2----2-------2---||
A|-5-----------5-------------------------------------0--------------------------||
E|-------------------------3-----------3-------------------------3--------------||

E|------------------------------------------------------------------------------||
B|-------6-----------5-----------4-----------3-------------3------------2-3-5---||
G|-----7---7-------7---7-------3---3-------3---3---------2---2--------2---------||
D|---7-------7---7-------7---5-------5---5-------5-----2-------2----2-----------||
A|-5-----------5-------------------------------------0--------------------------||
E|-------------------------3-----------3-------------------------3--------------||


Chorus

I keep the wolf from the door...
E|-------||
B|-----3-||
G|---2---||
D|-------||
A|-------||
E|-2-----|| (x4)

Calls me on the phone...
E|-------||
B|-----3-||
G|---4---||
D|-------||
A|-------||
E|-3-----|| (x4)

Steal all my children...
E|-------||
B|-----2-||
G|---2---||
D|-------||
A|-------||
E|-2-----|| (x4)

But I'll never see him again if I squeal to the cops
E|--0-----------------------------x--------||
B|--2-----------------------------3--------||
G|--2-----------------------------4--------||
D|--0-----------------------------5--------||
A|--x-----------------------------5--------||
E|--2-----------------------------3--------||
   (let ring)                    (let ring)

Break
E|-------------------------------------------------------------||
B|-------6-----------3-----------3-----------1-----------2-----||
G|-----7---7-------5---5-------3---3-------2---2-------2---2---||
D|---7-------7---5-------5---3-------2---2-------2---2-------2-||
A|-5-----------3-----------1-----------0-----------0-----------||
E|-------------------------------------------------------------|| (x2)

E|-------------------------------------------------------------||
B|-------6-----------3-----------3-----------1-----------2-3-5-||
G|-----7---7-------5---5-------3---3-------2---2-------2-------||
D|---7-------7---5-------5---3-------2---2-------2---2---------||
A|-5-----------3-----------1-----------0-----------0-----------||
E|-------------------------------------------------------------||

and then:
Verse 2
Chorus
to finish repeat the chorus chords while singing the "Tom Yorke whoooo"
Enjoy!
  development and support by
dmitry ivanov