rock
 
|tablatures   |lyrics   |discussion forums   |more tabs @ XGuitar.com

Queen tabs

White Queen guitar tab

Date: Fri, 1 Sep 1995 16:56:31 +0200
From: PINTER Denes 
Subject:  QUEEN: white_queen.tab

                             QUEEN : WHITE QUEEN
                             -------------------                             
                           from the album QUEEN II
                              / Brian May 1973 /

three guitars
|------|-19tr17--|-17tr15--|-15tr14--|
|-<5>--|-15------|-15tr12--|-12tr10--|
|-<12>-|-12tr11--|-11tr9---|--9tr7---|
|-<5>--|---------|---------|---------|
|------|---------|---------|---------|
|------|-left----|-right---|-left----|

acoustic guitar:
|-------------0------0h2---|-3-2----2---|---2------0-|----------0-|---2----|
|---------3---------3------|-3-3----3---|---3----3-0-|----------0-|-0-3----|
|------------------2-------|--------2---|-0-2----2-0-|--------2-0-|-0-2----|
|-----0-----------0--------|-0-0----0-2-|-0-0--------|-5\0----2-2-|-0------|
|-0h2---2------------------|----------2-|------------|-5\0----2-2-|-2------|
|--------------------------|----------0-|------------|-3----------|--------|
                                                            ^+bass D        

|------------------------------------------------------------------|------|
|------1---0-----------1---0-------------------------1-------------|------|
|--------------2---------------2-------2---2---2-------4-------2---|--0/--|
|----2---2---2---2---2---2---2---2---2---0-------1-------2---2---2-|--/0--|
|--0-----------------------------------------3---------------------|------|
|------------------3---------------1---------------1-------0-------|twice |

|-----------------0-------------5-----5---------------------------------------|
|-------------0---1---3-------5-----5---5-----3-------1-------3---------------|
|-----2-----------0---------5---------------2---2-----------2---2-----2...----|
|---2---2---0---0-2-------7---------------0---------2---2-0---------2---------|
|-0---------------3---2-----------7---------------0---------------------------|
|---------3-------------------------------------------------------0-----------|

|-3--2-----2--0-----3--2-----0--0-----3--2-----0--0-----3--2---|
|-3--3-----3--0-----3--3-----0--0-----3--3-----0--0-----3--3---|
|-4--2-----2--0-----4--2-----2--0-----4--2-----2--0-----4--2---|
|-5--0-----0--2-----5--0-----2--2-----5--0-----4--2-----5--0---|
|----------------------------------------------0--2------------|
|----------------------------------------------0--0------------|
acoustic guitar:
|-----------------------------------------------------------------|------|
|-----1---0-----------1---0---------------0---------1-------------|------|
|-------------2---------------2-------2---2---2-------4-------2---|--0/--|
|---2---2---2---2---2---2---2---2---2---0-------1-------2---2---2-|--/0--|
|-0-----------------------------------------3---------------------|------|
|-----------------3---------------1---------------1-------0-------|twice |

  Am    Dm/E  A7  Dm      F7       B B/a Gm Gm7 Esus4 E
|-------------0-------1-------1-----|
|---------3---2---------------------|
|-2---2---2-----2---2---2---2---2---|
|---2---2---2-----0-------1---------|
|-0-------0-------------------------|
|-----------------------------------|

acoustic guitar behind the solo
|------------------|-----------|---------0-|----------------|?
|-----1-------0----|-----0h1---|------0----|---0h1----0-----|?
|-2-----2---2--2-2-|-2------2--|---2---2---|-2----2----2----|?
|---2------2-2--2--|---2-----2-|--2-----2--|--2----2----2...|?
|---------0--------|-----------|-0---------|----------------|?
|------------------|-----------|-----------|----------------|?

acoustic solo
|-----------------------------------------------------------------|
|-----------------------------------------------------------------|
|-----------------------------------------------------------------|
|-7----11r9-7-7-7-7vvvv---10r9---9-10-12r10-9-10-9h9p7h9p7--9-7---|
|---------------------------------------------------------------7-|
|-----------------------------------------------------------------|

|--------------------------------------------------------|
|--------------------------------------------------------|
|-7-b8-b9-9r7-7-5h7p5---4-5-4h5p4--5p4-5-7-9r7p5-7p5-7/9-|
|--------------------------------------------------------|
|--------------------------------------------------------|
|--------------------------------------------------------|

|------------------------------------------------------------------|
|---------8h10-8-10-8/10-10-10/12-12-12h13p12p10-12-13-12h13p12p10-|
|-9/11-11----------------------------------------------------------|
|------------------------------------------------------------------|
|------------------------------------------------------------------|
|------------------------------------------------------------------|

|------------------------------------------------------------|
|-12-10------------------------------------------------------|
|-------9p7(\5)-7p5-7p5--4-5-7-(5)-8-7-8-7-8p7-5-7-5\4-5p4---|
|------------------------------------------------------------|
|------------------------------------------------------------|
|------------------------------------------------------------|

|-12r10p8-7-8-7h8p7---------------------------------------------|
|-------------------10------------------------------------------|
|----------------------9-7--------------------------------7b9---|
|--------------------------10p9-10-----------9-10-12\10-9-------|
|----------------------------------9-9/11-----------------------|
|---------------------------------------------------------------|

|----------------------------------------------------------------|
|----------------------------------------------------------------|
|--b9-b9-b9-9r7-5-7-7r5-5-5-5-5r4-4-4----------------------------|
|--------------------------------------9r7-7---10r9(p7)-9p7-7-7--|
|----------------------------------------------------------------|
|----------------------------------------------------------------|

|---------------------------------------------------------------------|
|---------------------------------------------------------------------|
|---------------------------------------------------------------------|
|-9b10-b10-b10-b10-10r9-10r9-7-9-7-9-10r9-9-10r9-7-10-9hp--7--10r9-7--|
|---------------------------------------------------------------------|
|---------------------------------------------------------------------|

two-three guitars
|------------------------------| |--------------------------------|
|-10---10--8--7--3-------------| |------------------------8-10-12-|
|-11---11--7--2--2---2-4--2-4--| |-----------------8-9-11---------|
|--------------------4-5-------| |------------9-11----------------|
|--------------------7-7--6-7--| |----9-10-12---------------------|
|---------------------------0--| |-12-----------------------------|

|-------------------------------------12b13---b13--r12p10-12h13phphphp12-10--|
|-12b13---b13--r12p10-12h13phphp12-10----------------------------------------|
|----------------------------------------------------------------------------|
|----------------------------------------------------------------------------|
|----------------------------------------------------------------------------|
|----------------------------------------------------------------------------|

|----------------------------------------------------|
|-18b20--18-15-------17b18--r17p15h17--18-17h18hp----|
|--------------17-15---------------------------------|
|----------------------------------------------------|
|----------------------------------------------------|
|----------------------------------------------------|

...
acoustic guitar:
|-2--0--------------------------0---3----3p2------0--------------------------|
|-3--0----0---0----------3---3--0---3--3----3-----0--------3-----------------|
|-2--0----0---0-------0--2------0---0--------2-2--0---0----2----------0------|
|-0--2----4p2-4p2-0---0--4---0--2---0--0-------0--2---0-0--0--------2---2----|
|----2--------------2-2-------------------------------5------4\---2----------|
|----0----------------3--2----------------------------3-2-------0------------|
Warning: mistakes
transribed by PINTER Denes
1995 august 7,

  development and support by
dmitry ivanov