rock
 
|tablatures   |lyrics   |discussion forums   |more tabs @ XGuitar.com

Queen tabs

White Man guitar tab

White Man
Words and music by Brian May


Drop - D tuning



|-------------------------|----------------------------------------------------|
|----------------------3--|----3-----3---3---3---3----3____---3-------3---3----|
|----------------------2--|----0-----2---2---2p0-2----2__p0---2---2p0-2p0-2----|
|----------------------0--|----3-----0------------------------0---0---0---0----|
|-5p3bp0------------------|----3-----0-----------------------------------------|
D--------3b---0-3b---0----|-0--3-----------------------------------------------|



|---------------------------------------------------------------------------------|
|-3------------------------------------------------------------3--------------3---|
|-2---0---------------------(5)--------------------------------2--------------2---|
|-0---0---5---5---5p3-5------5__p3---5---5---5p3---------------0--------------0---|
|---------3---3---3---3------3-------3---3---3---5-----3---0----------3---0-------|
|------------------------------------------------5-----3---0----------3---0-------|



|---------------------------------------------------------|
|---------3---3---3---3------3---3---1---3-------3---3----|
|---0-----2---2---2p0-2------2---2---0---2---2---2p0-2----|
|---3-----0-x-0-3-0---0------2---3-------0---0---0---0----|
|---3-----------------------------------------------------|
|-0-3-----------------------------------------------------|



|---------------------------------------------------------------------------------|
|-3------------------------------------------------------------3--------------3---|
|-2p0----------5---5---5-----5---5-----------5-----------------2--------------2---|
|-0--------5---5---5p3-5-----5---3---5---5---5p3-5-------------0--------------0---|
|----------3---3-------3---------3---3---3---3---5-----3---0----------3---0-------|
|------------------------------------------------5-----3---0----------3---0-------|



chorus riff

|------------------------------------------------------------|----|
|------------------------------------------------------------|----|
|------------------------------------------------------------|-0/-|
|-------------------------------------------8----------------|-/0-|
|-3----0---3----0---3p0-0----3/5-5-5----8-------8-------0----|----|
|-3----0---3----0---3p0-0----3/5-5-5----8-------8-10-12-0----|----|


|--------------------------------------------------------------------|
|--------------------------------------------------------------------|
|--------------------------------------------------------------------|
|--------------------------------------------------------------------|
|-3----0---3----0----3---0---8---8---8---8---8---8---8-7-5---5//-0---|
|-3----0---3----0----3---0---8---8---8---8---8---8---8-7-5---5//-0---|



|---------------------------|
|-----------------------3---|
|-----------------------2---|
|-----------------------0---|
|-5p3p0-------------0-------|
|-------3b---0-3b---0-------|

...
  development and support by
dmitry ivanov