rock
 
|tablatures   |lyrics   |discussion forums   |more tabs @ XGuitar.com

Queen tabs

We Are The Champions guitar tab

     QUEEN: WE ARE THE CHAMPIONS
    From the album NEWS OF THE WORLD  
         Freddie Mercury 1977

E-|---------------|-------------------|
B-|(8)8-----9-----|-8-----11-9--------|
G-|-----8-----8---|---8--------8------|
D-|-------8-----8-|--------------8-10-|
A-|---------------|-------------------|
E-|---------------|-------------------|


E-|---------------|-------------------------------------------|
B-|-------1-------|---------------------------------------4-3-|
G-|-8-7-5-2-3---5-|---------7-----------------2---3-------5-2-|
D-|-8-8-5-3-3---5-|-3---7---7---8/--10--3-----2---3-----------|
A-|-6-5-3-3-1---3-|-3---7---5---8/--10--3-----0-0-1-0---------|
E-|-------1-------|-1-3-5-5-----6/---8--1---3---------3-2-----|
  |               |                                           |
E-|---------------|---------------------1-1-------------------|?
B-|---------------|----------6\-7----9\-1--1----5--3----1-----|?
G-|---------------|----------7\-8---10\-2-----5-5--3----2-----|?
D-|---------------|------7---7\-8---10\-3-----7----3----4-1-0-|?
A-|---------------|------7---5\---------------7---------------|?
E-|---------------|------5------------------------------------|?


E-|-------------------1-3-4-6-8----|
B-|-2-2---------------1-3-4-6-8----|
G-|-2-2-4-4-----------2-3-5-7-10---|
D-|-4-4-4-4-------2-5-3-5-6-8-8--3-|
A-|-4-4-2-2-1---4-----3-5-6-8-10-3-|
E-|-2-2-2-2-----------1-3-4-6-8--1-|
  |                                |
E-|--------------------------------|
B-|---------2-2-2-2-2--------------|??
G-|---------3-3-3-3-3--------------|  ?
D-|---------5-5-5-5-5--------------| ?
A-|--------------------------------|?
E-|--------------------------------|?


E-|----------|----------3-|----3-----------|-------------|
B-|--------6-|------3-----|-----4------6---|------3------|
G-|--5-3-----|------------|--5-----3-------|---------0---|
D-|------5---|------------|----------5-----|-------------|
A-|----------|-3----------|----------------|-3-----------|
E-|----------|------------|----------------|-------------|
  |          |            |                |             |
E-|----------|------------|----------------|-------------|
B-|----------|------------|----------------|----4--3---6-|
G-|----3-----|---5--3-----|-------5p3------|---------3---|
D-|------5---|--------5---|-----------3h5--|-------------|
A-|-3--------|------------|-3--------------|-3-----------|
E-|----------|------------|----------------|-------------|


    r l r   r l r r l   r r l l  l l l l
l-|-------------------|-------------------|  r: from left
B-|---------8---9-----|-8---8-11-9--------|  l: from right
G-|---8-8-----8---8---|------------8------|  ( or... )
D-|-----------------8-|---8----------8-10-|
A-|-6-----------------|-------------------|
E-|-------------------|-------------------|


E-|----------------------|------------------------------------|
B-|-------1--------------|--------------------------------4-3-|
G-|-8-7-5-2-3-3-3-3----5-|---------7----------2-3---------5-2-|
D-|-8-8-5-3-3-3-3-3----5-|-3---7---7-8-10-3---2-3-------------|
A-|-6-5-3-3-1-1-1-1----3-|-3---7---5-8-10-3---0-1-1-0---------|
E-|-------1--------------|-1-3-5-5---6-8--1-3---------3-2-----|
  |                      |                                    |
E-|----------------------|------------------------------------|?
B-|----------------------|----------6\-----------3------1-----|
G-|----------------------|----------7\-----------3------2-----|?
D-|----------------------|------7---7\-----------3------4-1-0-|
A-|----------------------|------7---5\------------------------|?
E-|----------------------|------5-----------------------------|


E-|-------------------1-3-4-7-8--|
B-|-2-2---------------1-3-4-7-8--|
G-|-2-2-4-4-----------2-3-5-7-10-|
D-|-4-4-4-4-------2-5-3-5-6-8-8--|
A-|-4-4-2-2-1---4-----3-5-6-8-10-|
E-|-2-2-2-2-----------1-3-4-6-8--|
  |                              |
E-|------------------------------|
B-|---------2-2-2-2-2------------|?
G-|---------3-3-3-3-3------------|??
D-|---------5-5-5-5-5------------|???
A-|------------------------------|??
E-|------------------------------|?


E|----------------------------------------------|-------------------1-3-4-6-8-|
B|----------------------------------------------|-2-2---------------1-3-4-6-8-|
G|---------7-----------------2---3--------------|-2-2-4-4-----------2-3-5-7-10|
D|-3---7---7-8-8-10-10---3---2---3------1-0-7-5-|-4-4-4-4-------2-5-3-5-6-8-8-|
A|-3---7---5-8-8-10-10---3---0-0-1-0------------|-4-4-2-2-1---4-----3-5-6-8-10|
E|-1-3-5-5---6-6-8--8--8-1-3---------3-2--------|-2-2-2-2-----------1-3-4-6-8-|
 |                                              |                             |
E|------------------------1---------------------|----------------------------?|
B|-------5--6\-----------1-1------3-------------|---------2-2-2-2-2----------?|
G|--------5-7\-----------2--------3-------------|---------3-3-3-3-3----------?|
D|------7---7\-----------3--------3-------------|---------5-5-5-5-5----------?|
A|------7---5\----------------------------------|----------------------------?|
E|------5---------------------------------------|----------------------------?|

There is many mistakes
In the second guitar-part,
( i mean: in the tab ) but... 
Pinter Denes '94 oct
dpinter@goliat.eik.bme.hu

            QUEEN: WE ARE THE CHAMPIONS
         from the album NEWS OF THE WORLD
            written by Freddie Mercury 
                        1977

two guitars arr. for one
|-------------------|-------------------|
|-------8-----9-----|-8-----11-9--------|
|-8---8---8-----8---|---8--------8------|
|---8-------8-----8-|--------------8-10-|
|-------------------|-------------------|
|-------------------|-------------------|

two guitars (left&right) arr.for one
|---------------------------------1--------------------------------|
|-8---6---------------------------1-1---1-------------6\-----------|
|-8---7---3-\-----3-------5-\-----2-----2---2-----7---7\---3---3-\-|
|-8---8---5-\-3---3-------5-\-3---------2---2-----7---7\---3---5-\-| riff A (1)
|-6---5---3-\-3---1-------3-\-3---------0---0---0-5---5\---1---3-\-|
|-------------1---------------1-------3----------------------------|
                                       midle guitar
|-----1-----------------------------|  |--------|
|-1-----1---------1---------3-------|  |-1---3--|  riff A (2)
|-2-----2-----2---2-----3---3-------|  |-2---2--|
|-3-----3-----2---2-----3---3-------|  |-1---0--|
|-3-----------0---0---0-1---1-0-----|  |--------|
|-1-------1-3-------------------3-2-|  |--------|

|-3---3---3-------------------------------1--------1--------------------------|
|-3---3---3-5---5-------3-----------------1-1----------1------6-4-------6-----|
|-3---3---3-5---5---3---3-----------------2---2-3----3----5-------5-------7---|
|-5---5---5-5---5---3---3---------5-\-3---------1---------6-----------------9-|
|-5---5---5-3---3---1---1---4-7-------3---------1---------6---------8---------|
|-3---3---3-3---3---------------------1---------3---------4---------6---------|
                                                    riff A (3)
|-------------|
|-------------|
|-10-10-------| riff A (4)
|--8--8-------|
|-10-10--\3---|
|--8--8---1---|

|right guitar
|----------------|----------------------|----------------|------------------|
|----------------|-------------8--------|----------------|------------------|
|------------10--|----------------------|-----------10---|------------------|
|--10---8--------|--------12-8---8-12-8-|--------12-----8|-10---12----------|
|---------10-----|----------------------|----------------|-----------10-----|
|----------------|----------------------|----------------|------------------|
|left guitar     |                      |                |                  |
|----------------|----------------------|----------------|------------------|
|----------------|----------------------|----------------|------------------|
|----------------|----------------------|----------------|-----8-------10\--|
|-------8--------|----10---8----12------|-----10p8-------|--------12-8------|
|---------10-----|-----------10---------|-8--------8h10--|------------------|
|-8--------------|-8--------------------|----------------|-8----------------|

 
|-------------------|--------------------|
|---------8---9-----|-8---8-11-9---------|  
|-----8-----8---8---|------------8-------|  
|---8-------------8-|---8----------8-10--|
|-6-----------------|--------------------|
|-------------------|--------------------|

riff A

|------1---------------------------------------1----------------------------|
|------1---------1-----6---6\------------------1-----1----------------------|
|------2-----2---2-----7---7\--3-3---5-5-\-----2-2---2---2---3----3---------|
|------------2---2-----7---7\--3-3---5-5-\-3-----3---2---2---3----3---------|
|-(3)--------0---0---0-5---5\--1-1---3-3-\-3-----3---0---0---1----1-0-------|
|-(1)----1-3-------------------------------1-----1-3------------------3-2---|


|-------------3----------------------------|
|-------------3---5---5--------------------|
|-----2-0-----3---5---5--------------------|
|-1-0-----5-------5---5---------------5-\--|
|---------5-------3---3---1-----4-7--------|
|---------3-------3---3--------------------|

riff A (3)

|---------|
|--8--8---|
|-10-10---|
|--8--8---|
|-10-10---|
|--8--8---|

the solos (midle guitar):
|--------------------------------||----------------------------------------|
|-b11-b11-b11-b13-r11-8----------||----------------------------------------|
|-----------------------9--------||-17b19-b19-14--17b19--------------------|
|-------------------------10-----||---------------------b19-17-15----------|
|----------------------------8---||-------------------------------17-15--\-|
|--------------------------------||----------------------------------------|

|---------------------------------------|
|---------------------------------------|
|----------------------12-14-15-/17-----|
|-12---h13r12p10h12---------------------|
|-----------------------------------15\-|
|---------------------------------------|

|-----------------------------------------------------------------------------|
|-----------------------------------------------------------------------------|
|-15---17---18-17---15-\5---10----------10\0--------10\---------10-----10-10--|
|-------------------------------8/10---------/10-------/10-10------10---------|
|-----------------------------------------------------------------------------|
|-----------------------------------------------------------------------------|


|------------------------------------------|
|-13b15---b15--b15---13b15--r13p11-10------|
|-------------------------------------12-\-|
|------------------------------------------|
|------------------------------------------|
|------------------------------------------|

|------17b18-17-18-15b17--b17r15p13--15b17--b17r15p13--15b17--b17r15p13--|
|-8/15-------------------------------------------------------------------|
|------------------------------------------------------------------------|
|------------------------------------------------------------------------|
|------------------------------------------------------------------------|
|------------------------------------------------------------------------|

|-15b16--b16r15p13--20b22--20-18-17-----------------|
|-----------------------------------20-18-20--------|
|-------------------------------------------19-17\--|
|---------------------------------------------------|
|---------------------------------------------------|
|---------------------------------------------------|

  development and support by
dmitry ivanov