rock
 
|tablatures   |lyrics   |discussion forums   |more tabs @ XGuitar.com

Queen tabs

Too Much Love Will Kill You bass tab

QUEEN*QUEEN*QUEEN*QUEEN*QUEEN*QUEEN*QUEEN*QUEEN*QUEEN*QUEEN*QUEEN*QUEEN*QUEEN*QUEEN*QUEEN*
Too Much Love Will Kill You 
written by Brian May,Frank Musker and Elisabeth Lamers
>From "Made In Heaven"
Tab By: André Aguilar

0.06
|----------------------9-7-5-----12-14-----------------------------------------12--12-11-9--7--|
|--------------------------------------14-----14-----------------------------12--------------10|
|----3--5/----3----5\7---------------------12----------12--------02---3------------------------|
|-3---------3---3---------------------------------10-----10--------3-----3---------------------|

|---------14-------------14----------14--14----------------------------------------------------|
|-5-----14--14---------14--12---14\16--16------------------------------------2-----------------|
|---3-----------12---------------------------12-------3-3\7-7--5-------3--3-5----5---3-2---2-3-|
|------------------12--------------------------10--03-------------3---3------------------------|

|-------------5\7-----------12--------------12------11-9-7-------------------------------5--|
|---0-------------5----12-14--14-10----12-14--14----------------------------------------5---|
|2\7--4--5--------------------------------------10----------------3--3-------------5-3------|
|----------------------------------------------------------10\3-3---3-3-33-3-2-0--0---------|

|----------------------------------------------------5--5-0-4------4-2-2\-----4-4----------|
|---------------------------------------5--4-2-0----5--------------------2-----2---0-0\12--|
|-0-----50------5---5---5---5----3-2---5---------3-------------0---------------------------|
|----0------50-----5---5---5---3----3----------------------------0-------------------------|

|-----------------------------------------------------------------------12----------------------|
|----------2-----------------------2-------------------0-----------12-14--14-10-----------------|
|---3--3-5----5----3----2-3----3-5----5---3-2--2-3--3\7---4--5------------------------3---------|
|-3------------------3------------------------------------------3-------------------3----3--3-3-|

|--------------------------------------------------------------------------------------------|
|--------------10\12/10--------------------0----00000------------2---------------------2-----|
|----5-3----10------------0--0-----0--0---0---00-----------3--3-5----5---3----2-3---3-5---5--|
|-0---------------------------30-------0-----------------3-----------------3-----------------|

|---------------------------------------------------------------------|
|--------------0-----------------5------------------------4-----------|
|3-2--2-3--3\7---4--5-----23523----5---2\5---5-2-------4-7--7-3--\14--|
|----------------------3------------------3--------3------------------|

Tab by André Aguilar (crazylittlethingcalledlove@hotmail.com
If you have any suggestions or corrections
feel free to mail me). 11 january 2002 Portugal
  development and support by
dmitry ivanov