rock
 
|tablatures   |lyrics   |discussion forums   |more tabs @ XGuitar.com

Queen tabs

These Are The Days Of Our Lives bass tab

THESE ARE THE DAYS OF OUR LIVES
QUEEN
FROM THE ALBUM INNUENDO
WRITTEN BY QUEEN
TABBED BY PETE COSGROVE
pete@innuendo.freeserve.co.uk


Bass enters with keyboards straight after percussion intro 

G|---------9--------|-------10--9-----|--------14-------|15--14---14------|------9----------|-------10--9-----|
D|*-----------------|-----------------|-----------------|-----------------|-----------------|-----------------|
A|*-----------------|-----------------|-----------------|-----------------|-----------------|-----------------|
E|-8----------------|8----------------|13let-ring-straig|ht-through-------|8----------------|8----------------|

G|--------14-------|-----------------|15--14---14------|-------------|-------------|-------------|
D|-----------------|-----------------|-----------------|-------------|-------------|-------------|
A|-----------------|-----------------|-----------------|-------------|-------------|-------------|
E|13let-ring-straig|ht-through-------|-----------------|3------3-----|3------3-----|3--3-3-3-3-3-|

G|-----------|-----------|7---10---9-7---|-------------|-------5--------|------------|------------|
D|-----------|---------7-|-------------7-|---------7---|5---7-----7-5---|5------2-5-2|------------|
A|-----------|-----------|---------------|0----7-----7-|--------------7-|------5-----|------------|
E|3-3---3----|5---5------|---------------|-------------|----------------|---3--------|3-----------|

  Chorus
G|-------------|------------|-----10----|-----1010/12--10/|------------|----------|--------------|
D|---------10--|9---7-------|--10-------|--10-------------|------------|----------|--------------|
A|-------------|--------10--|8----------|8----------------|3-3--3---3--|2---3-----|--------------|
E|8-8--8-------|------------|-----------|-----------------|------------|-------3--|1-1-1-1-1-----|

G|-----1010/12--10/|------------|-----------|------------|-------------|-------------|------------|
D|--10-------------|------------|-----------|------------|5/7----------|5------------|------------|
A|8----------------|3-3--5---3--|2---0------|1---3----1--|-------------|-------------|------------|
E|-----------------|------------|--------0--|------------|-------------|--3----3-----|3------3----|

 __________________ _________________
 |1. 		   |2.		      |  Guitar solo
G|-----1010/12--10/|-----10-12---10---|------------|------------|------------|---------------|
D|--10-------------|--10--------------|------------|------------|----7-7-----|-----7---------|
A|8----------------|8-----------------|5-----5-----|5-----5-----|--7---------|---------------|
E|-----------------|------------------|------------|------------|5---------5-|5---------8-10-|

G|----11/12--11-9--|-----9-------|----------|----------|----------|-----------------|-----------|
D|---9------------9|---9-------9-|----------|----------|----------|-----------------|-----------|
A|7----------------|7------------|----------|----------|----------|-----------------|5---5------|
E|-----------------|-------------|6---------|5---------|3---------|3--3-3---3-3-3-3-|-----------|

G|-----------|------------|-------------|--9----------|-------9---|-----------|-----------|
D|-----------|------------|----7--------|-----9-------|-----------|-------8---|-------7---|
A|5---5----57|------------|-------------|7---------7--|7----------|-----------|-----------|
E|-----------|5---5-----5-|5-------8-10-|-------------|-----------|6----------|5----------|

			       Chorus
G|------------|--------------|------------|------------|-------------|-----1010/12---10/--|
D|------------|--------------|------------|------------|-------------|--10----------------|
A|------------|------------2-|3-3--3---3--|2-----------|-------------|8-------------------|
E|3---------3-|3---3---3-5---|------------|----5----3--|1-1-1-1-1----|--------------------|

G|-------------|-----------|-------------|-----1010/12---10/-|-----------|------------|
D|-------------|-----------|-------------|--10---------------|-----------|------------|
A|3-3--3----3--|2---3------|-------------|8------------------|3-3--5--3--|2---0-------|
E|-------------|--------3--|1-1-1-1-1----|-------------------|-----------|---------3--|

G|---------------|------------|----------|10----1010/12---10-|-----1010/12---10-|-------------|
D|---------------|------------|----------|---10--------------|--10--------------|----33/5---3-|
A|1-1-1-3----1/--|12----------|----------|-------------------|8-----------------|--3----------|
E|---------------|------------|3---------|-------------------|------------------|1------------|

G|-------------|------9-----|-----10--9---|------9-----|------------|
D|----33/5---3-|------------|-------------|------------|------------|
A|--3----------|------------|-------------|------------|------------|
E|1------------|8-----------|8------------|8-----------|8-----------|


pete@innuendo.freeserve.co.uk
  development and support by
dmitry ivanov