rock
 
|tablatures   |lyrics   |discussion forums   |more tabs @ XGuitar.com

Queen tabs

The Miracle bass tab

THE MIRACLE
QUEEN
FROM THE ALBUM "THE MIRACLE"
WRITTEN BY QUEEN
TABBED BY PETE COSGROVE
pete@innuendo.freeserve.co.uk


G|----------------|----------------|-----------------|----------|---------|-----------|----5-7-8----|
D|--------------13|----------------|-----------------|--------66|---------|--------5--|-------------|
A|15--------1315--|15------------/3|3-------------336|----------|---------|5--------65|3------------|
E|--------15------|----------------|-----------------|4---------|6--------|-----------|-------------|

G|--------------------|--------------|--------------|----------------|-------------|------------|
D|5--5----------------|--------------|--------------|--86-6-6--------|---8-------66|----------6-|
A|----8-8-86-6-65/10/5|4-4--4---4--44|--------------|--------9-9-98--|6----6-4-----|-------6/8-8|
E|--------------------|--------------|7-7--7---7--77|6---------------|-------------|4-----------|

G|------------|------------|----------------|----------------|----------------|----------------|
D|----8-----6-|------------|4---------------|----------------|----------------|----------------|
A|6----64-----|2---2-2---46|----------------|----------------|----------------|----------------|
E|------------|------------|--2-2-2-2-2-2-22|2-2-2-2-2-2-2-22|2-2-2-2-2-2-2-22|2-2-2-2-2-2-2-2-|

G|------------------|------------------|--------------|---------------|------------|--------------|
D|------------------|------------------|-----13-------|---------------|----------6-|6-----6-6-6---|
A|------------------|------------------|--13----------|---------------|-------6/8-8|----68-----868|
E|4-4-4-4-6-6-6-6/11|4-4-4-4-6-6-6-6/11|11------------|11----/2-----/8|4-----------|--------------|

G|--------------|------------|-----------|-----------|------------|-----------|------------|
D|--------------|------------|-----------|-----------|----6-------|-----------|------------|
A|4-----4-4-----|4---4-4---64|3---3-3----|-----------|4----4-----4|6-----6----|7----8--/--3|
E|----46----6464|------------|-----------|2---2-2----|------6---6-|----64---68|------------|

G|----------------|----------------|-----------|---------|---------|-----------|----------------|
D|----------------|----------------|-----------|6--------|---------|--------4--|----------------|
A|----------------|--------4-4-4-4-|-------8686|---------|---------|4---6------|3-3-3-3-3-3-3---|
E|2-2-2-2-4-4-4-42|6-6-6-64--------|4----------|---------|4--------|-----------|--------------36|

G|--------------|--5---5-5-----|-------------|---------|------8-----|----5-7--8--|--------------------|
D|--------------|-------5----5-|-------------|---------|---------8--|------------|5-5-----------------|
A|35653---3-----|3------------3|-------------|---------|6---------65|3-----------|---8-8-86-8-6-5/10/5|
E|-----643----36|--------------|4----44----44|6--------|------------|------------|--------------------|

G|--------------|--------------|----------------|-------------|-----------|-----------|------------|
D|--------------|--------------|--86-6-6--------|---8-------66|---------6-|----8-----6|------------|
A|4-4--4---4--44|--------------|--------9-9-98--|6----6-4-----|------6/8-8|6----64----|2---2-2---46|
E|--------------|7-7--7---7--77|6---------------|-------------|4----------|-----------|------------|

G|----------------|----------------|----------------|----------------|------------------|------------------|
D|4---------------|----------------|----------------|----------------|------------------|------------------|
A|----------------|----------------|----------------|----------------|------------------|------------------|
E|--2-2-2-2-2-2-22|2-2-2-2-2-2-2-22|2-2-2-2-2-2-2-22|2-2-2-2-2-2-2-2-|4-4-4-4-6-6-6-6/11|4-4-4-4-6-6-6/11/6|

G|------------------|------------------|----------------|-----------|-----------|----------------|
D|------------------|----13---11---1113|------------13--|-----------|-----------|4---------------|
A|------------------|--13--------------|11------1315--15|-----------|-----------|----------------|
E|4-4-4-4-6-6-6-6/11|11----------------|----------------|11----9----|7----------|--2-2-2-2-2-2-22|

G|----------------|----------------|----------------|------------------|------------------|-----------------|
D|----------------|----------------|----------------|------------------|------------------|----13---let-ring|
A|----------------|----------------|----------------|------------------|------------------|--13-------------|
E|2-2-2-2-2-2-2-22|2-2-2-2-2-2-2-22|2-2-2-2-2-2-2-2-|4-4-4-4-6-6-6-6/11|4-4-4-4-6-6-6-6/11|11---------------|

G|---------------|-----------|---------|---------|---------|-----------|----------|------------|--------------|
D|let ring-----/1|---------6-|6-----6/-|---------|---------|-----------|----------|----6-------|--------------|
A|---------------|------6/8-8|---------|4--------|4-------4|3---3-3----|----------|4----4------|6------6------|
E|---------------|4----------|---------|---------|-------4-|-----------|2----2----|------6---6-|----6/8----6/8|

G|---------|----------------|-------------------|------------13--|------------|------|---------|---------|
D|---------|----------------|-------------------|-------13/15----|------------|------|---------|---------|
A|7--8---/3|----------------|-------------------|11--------------|------------|------|---------|---------|
E|---------|2-2-2-2-4-4-4-4-|6-6-6-6/99-9-9-9/16|----------------|4---4-4---4-|4--4--|4--------|---------|

The next Bass Section is played on keyboards but this is it if you want to play it - it is pretty cool

G|---------------|
D|--------------*| Play this part until the next vocal section
A|4-4-----4-4---*|
E|----464-----464|

  then when the vocals come back in play

G|--------------|6/86-6--------6|5-5-5-5-5---|-----------|
D|*-----------6-|-------6-----8-|------------|----------*|
A|*-4----4--4---|---------4-----|------------|----------*|
E|--------------|---------------|------------|2---2-2---2|
  development and support by
dmitry ivanov