rock
 
|tablatures   |lyrics   |discussion forums   |more tabs @ XGuitar.com

Queen tabs

The Hitman bass tab

THE HITMAN
QUEEN
WRITTEN BY QUEEN
FROM THE ALBUM "INNUENDO"

TABBED BY trafficzombie
trafficzombie@innuendo.freeserve.co.uk


tempo - 180

Guitar & Drums only in intro



G|--------|-------|--------|--------|--------------|------------|------------|---------------|
D|--------|-------|--------|--------|*-------------|------------|------------|--------------*|
A|--------|-------|--------|--------|*-------------|------------|------------|2-4-2-0-2-0---*|
E|--------|-------|--------|--------|--2---0-2-0---|2---0-2-0---|2---0-2-0---|------------2--|

				      1st verse
G|--------|-------|--------|--------|--------------|------------|------------|---------------|
D|--------|-------|--------|--------|*-------------|------------|------------|--------------*|
A|--------|-------|--------|--------|*-------------|------------|------------|2-4-2-0-2-0---*|
E|--------|-------|--------|--------|--2---0-2-0---|2---0-2-0---|2---0-2-0---|------------2--|

G|---------\\5--|5--5-------|-----------|---------|----------\\5--|-5--5-5-5-5--|------------|------------|
D|-------------|-----------|-----------|---------|--------------|-------------|------------|------------|
A|3--3-3-3-----|-----------|3----------|---------|3--3-3-3------|-------------|4--4--4--4--|let-ring----|
E|-------------|-----------|-----------|---------|--------------|-------------|------------|------------|

   2nd verse
G|--------------|------------|------------|---------------|---------\\5--|5--5-------|-----------|---------|
D|*-------------|------------|------------|--------------*|-------------|-----------|-----------|---------|
A|*-------------|------------|------------|2-4-2-0-2-0---*|3--3-3-3-----|-----------|3----------|---------|
E|--2---0-2-0---|2---0-2-0---|2---0-2-0---|------------2--|-------------|-----------|-----------|---------|

G|----------\\5--|-5--5-5-5-5--|------------|------------|---------|--------------|-------------|------------|
D|--------------|-------------|------------|------------|---------|----------7-9-|---------7-9-|------------|
A|3--3-3-3------|-------------|4--4--4--4--|let-ring----|---------|------7-9-----|-----7-9-----|------------|
E|--------------|-------------|------------|------------|7-----let|ring----------|7------------|7---7-7---7-|

G|-----------|---------|---------|---------|-----------|------|---------------|-------------|-------------|---------|
D|-----------|---------|---------|---------|-----------|------|*--------------|-------------|-------------|--------*|
A|-----------|---------|---------|---------|-------2---|------|*----------3---|---------3---|---------3---|--------*|
E|7--7--7----|2--------|0-2------|2--------|5-2------2-|------|--5--5-3-5-----|5--5-3-5-----|5--5-3-5-----|---------|

G|---------------|---------------|--------------|----------|---------|---------|
D|*-------------*|*-------------*|*------------*|----------|---------|---------|
A|*----------3--*|*----------6--*|*------------*|----------|---------|---------|
E|--5--5-3-5-----|--8--8-6-8-----|-3--3-1-3-1---|----------|---------|---------|

   Guitar Solo
G|------------|------------|------------|---------------|        |-------------|-------------|
D|------------|------------|------------|---------------|X4 then |-------------|-------------|
A|------------|------------|------------|2-4-2-0-2-0----|        |-------------|-------------|
E|2---0-2-0---|2---0-2-0---|2---0-2-0---|------------2--|        |2---0-2-5----|2-2-0-2-5----|

G|------------|------------|------------|------------|------------|------------|------------|------------|
D|------------|------------|--------2---|--------2---|--------6---|--------2---|--------2---|--------2---|
A|--------2---|--------2---|4---2-4-----|4---2-4-----|4---2-4-----|4---2-4-----|4---2-4-----|4---2-4-----|
E|4---2-4-----|4---2-4-----|------------|------------|------------|------------|------------|------------|

G|----------|---------|-----------|------------|--------------|0--------|11------11-11-|11--------------|
D|----------|---------|5----------|------------|--------------|---------|--------------|----------------|
A|----------|---------|-----------|------------|--------------|---------|--------------|----9--12-9-2-0-|
E|3------3--|3--------|-----------|------3-----|3----3\\15-15--|---------|--------------|----------------|

G|----------|------------|--------12-|let-ring-----11----|-------------|---------------|-----------|------------|
D|----------|------------|-----------|----------12----12-|-------------|---------------|-----------|------------|
A|----------|------------|-----------|-------------------|10-----------|---------------|--------0--|9--9----9-9-|
E|3------3--|3--3--3--3--|3----------|-------------------|----------3--|ring--3--3--3--|2--2-------|------------|

G|------------|----------|-----------|---------|---------|----------|---------|-----------|---------|-----------|
D|------------|----------|-----------|4--4-----|4--------|4--4------|2--------|2--2--2----|2--------|2--2--2----|
A|9--9----9-9-|9----\\----|-----------|---------|---------|----------|---------|-----------|---------|-----------|
E|------------|----------|2----------|---------|---------|----------|---------|-----------|---------|-----------|

G|---------|---------|---------|-----------|---------|-------------|-------------|---------|
D|---------|---------|---------|------7----|---------|-------------|-------------|---------|
A|5--------|5--------|5--------|5--5-------|2--------|2--2--2--2-2-|2--2-2-2-2---|2--------|
E|---------|---------|---------|-----------|---------|-------------|-------------|---------|
   repeat with add lib till end
G|-------------|------------|------------|---------------|
D|*------------|------------|------------|--------------*|
A|*------------|------------|------------|2-4-2-0-2-0---*|
E|-2---0-2-0---|2---0-2-0---|2---0-2-0---|------------2--|
  development and support by
dmitry ivanov