rock
 
|tablatures   |lyrics   |discussion forums   |more tabs @ XGuitar.com

Queen tabs

Stone Cold Crazy bass tab

STONE COLD CRAZY
QUEEN
FROM THE ALBUM "SHEER HEART ATTACK"
WRITTEN BY QUEEN
TABBED BY PETE COSGROVE
pete@innuendo.freeerve.co.uk


  Intro
G|-----------------|---------------|-----------------|-------------|-----------|
D|*--------5-3-----|---------------|-----------------|------------*|-----------|
A|*------------5-1-|-1-1-1-1-1-1-1-|--------1-3-3b-3-|-2--3---4-5-*|-----------|
E|-1/3-3-3---------|---------------|1/3-3-3----------|-------------|3----------|

  Verse One 

G|----------------|----------------|----------|
D|----------------|----------------|----------|
A|3-3-3-3-3-3-3-3-|3-3-3-3-3-3-1-1-|3---------|
E|----------------|----------------|----------|

  Verse Two

  Then intro the guitar solo

G|-----------------|---------------|-----------------|-------------|
D|*--------5-3-----|---------------|-----------------|------------*|
A|*------------5-1-|-1-1-1-1-1-1-1-|--------1-3-3b-3-|-2--3---4-5-*|
E|-1/3-3-3---------|---------------|1/3-3-3----------|-------------|


  	        guitar solo
G|------------|----------------|---------------|----------------|----------------|----------------|
D|-----5--7-8-|9-9-9-9-9-9-9-9-|9-9-9-9-9-7----|----------------|----------------|9-9-9-9-9-9-9-9-|
A|5-----------|----------------|------------9--|----------------|----------------|----------------|
E|------------|----------------|---------------|7-7-7-7-7-7-7-7-|7-7-7-7-7-7-7-7-|----------------|

G|----------------|-----------|-------------|-----------------|---------------|-----------------|-------------|
D|9-9-9-9-9-9-9-9-|9--7-------|-------------|*--------5-3-----|---------------|-----------------|------------*|
A|----------------|--------9--|-7--5b-------|*------------5-1-|-1-1-1-1-1-1-1-|--------1-3-3b-3-|-2--3---4-5-*|
E|----------------|-----------|----------7/-|-1/3-3-3---------|---------------|1/3-3-3----------|-------------|
   Verse
G|------------|
D|------------|
A|------------|
E|3-----------|

G|--------------|----------------|------------|-----------------|-------------|
D|--------------|----------------|------------|-----------------|-------------|
A|--3-3-3-3-3-3-|3-3-3-3-3-3-3-3-|3-----------|-----------------|-------------|
E|--------------|----------------|------------|-----------------|6------------|

  play the following 3 times 
G|-----------------|----------------|----------------|-----------------|
D|*9-9-9-9-9-9-9-9-|9-9-9-9-9-9-9-9-|9-9-9-9-9-9-9-9-|9-9-9-9-9-9-9-9-*|
A|*----------------|----------------|----------------|----------------*|
E|-----------------|----------------|----------------|-----------------|

  Verse 3

G|----------------|----------------|-------------|-----------------|------------|
D|----------------|----------------|-------------|-----------------|------------|
A|3-3-3-3-3-3-3-3-|3-3-3-3-3-3-1-1-|3------------|-----------------|------------|
E|----------------|----------------|-------------|-----------------|3-----------|
  development and support by
dmitry ivanov