rock
 
|tablatures   |lyrics   |discussion forums   |more tabs @ XGuitar.com

Queen tabs

Son And Daughter bass tab

Queen
Son And Daughter

Words and music by Brian May

Transcribed by Pinter Denes 

bass-TAB

riff A
|---------------|-----------------___7--------------|----|
|---------------|-----5---75------7/9---75-7-x5-----|-0/-|
|-7---7---7-----|-7------7----7-----------7-----7-5-|-/0-|
|---------------|-----------------------------------|----|

riff B
|---------------------------------|-----------------___7--------------|----------|
|---------------------------------|-----5---75------7/9---75-7--5-----|-0/-------|
|-7-7-5---7-7-5---7-7-5---7-7-5---|-7------7----7-----------7-----7-5-|-/0...7-7-|
|---------------------------------|-----------------------------------|----------|

riff C
|------------------------------------------------------------------------------------------------|
|-----9(9)----9-9----9-9-----97------4-4-----4-4------4-4------------7-7-----7-7-----7-7-----76--|
|------------------------------------------------------------------------------------------------|
|-7-7-----7-7----7-7-----7-7-----2-2-----2-2-----2-2------2-3--4-5-5-----5-5-----5-5-----5-5-----|

riff A
riff B
riff C

|-----|-------------------------------|-----------------___7--------------|
|-----|-------------------------------|-----5---75------7/9---75-7--5-----|
|-7---|-7--75---7--75---7-7-5---7-7-5-|-7------7----7-----------7-----7---|
|-----|-------------------------------|-----------------------------------|

|------------|
|------------|
|------------|
|-7-7-7-7....|
tr: PD aug 26, 1997
  development and support by
dmitry ivanov