rock
 
|tablatures   |lyrics   |discussion forums   |more tabs @ XGuitar.com

Queen tabs

Ride The Wild Wind guitar tab

Ride The Wild Wind
Words and music by Queen (Roger)
Transcribed by Pinter Denes


solo

|-----------------------------------------------------------------------------|
|-3--3------------------------------------------------------------------------|
|-2--0--0--5--------------------2-------------------------------------------3-|
|-3--2--0--3--3-------3--5--7--\2------------------5------------------------3-|
|----------------------------------0------0--2--3--5---------------0-----0--1-|
|--------------------------------------------------3------3--2--3-----3-------|

another guitar
|-----------------------------------------------------------------------------|
|-----------------------------------------------------------------------------|
|-------------------------------------------------5---5-7-5-7-9-7-9b10vv------|
|-------------------------------5---5-7-5-7-8-7-8---8--------------------x----|
|-------------5---5-7-5-7-8-7-8---8---------------------------------------x---|
|-6-5-6-8-6-8---8-------------------------------------------------------------|

          >switch off treble booster
|-----------------------------------------|
|-17b18v----20-20b_22v---b22r__20-18-17---|
|-----------------------------------------|
|-----------------------------------------|
|-----------------------------------------|
|-----------------------------------------|

|----19---------19------19-19----------19----19----------20-------19-20-------|
|-17----17---17----17---------17-17-17----17----17-17-17----17-17-------17-17-|
|-----------------------------------------------------------------------------|
|-----------------------------------------------------------------------------|
|-----------------------------------------------------------------------------|
|-----------------------------------------------------------------------------|

|-19-20-------19-20----19----20----------20----19----19----------|
|-------17-17-------17----17----17-17-17----17----17----18-19-17-|
|----------------------------------------------------------------|
|----------------------------------------------------------------|
|----------------------------------------------------------------|
|----------------------------------------------------------------|

|-20----19----19...--|
|----17----17--------|
|--------------------|
|--------------------|
|--------------------|
|--------------------|

transcribed by Pinter Denes
  development and support by
dmitry ivanov