rock
 
|tablatures   |lyrics   |discussion forums   |more tabs @ XGuitar.com

Queen tabs

Radio Ga Ga bass tab

Artist:QUEEN
Song:Radio Ga Ga

Here you are one of the most beutiful Queen's song.
I tried to tab this out as best as I could but the bass line it's
really hard to figure out sometimes...so listen to the song for
the timing...

Intro with no bass...it starts after few seconds....

G---------------------------------------3h5h3--------------
D-----------------5-3-----------------x--------------------
A---------------------6-5-3-----------------------1--------
E-1--(let ring)-3-----------6-5-3--6-----------3----1-1----

  F              G                  Bb          G  Bb F

G------------------------------------------------------------
D----------3h5h3-------------------7h10h8--------------------
A----------------3/-----------------------1-1----1-----------
E1-1-1-1-1----------1--3-3-3-3-3-x-------------3---1-1-1h13--

1st Verse:
G-----------------------------------x-3h5h3-3h5h3-----------
D----------------x-5h7h5--5-3--------------------------------
A--------------5--------------5-3-1---------------8/----1----
E1-1-1-1-1-3-3---------------------------------------3----1-1

G----------------------------------------------------------
D------------3h5h3---------------------/12/----------------
A----------x-------3/--------------1-1------1-1-1-----1----
E1-1-1-1-1------------1--3-3-3-3-3----------------3-3---1-1


G----------------------------------------------------------
D----------------------------------------------------------
A----------------------1-1-1-1-1-2-2-2-2-2-5-5-5-5-2-2-----
E1-1-1-1-1--3-3-3-3-3--------------------------------------

Pre Chorus:

G-------------------------------------
D-/10-10-10-10------------------------  i'm not really sure
A--------------/3-3-3-3---------------  about this part but it
E-------------------------6-1-1--6-1-1  sounds good...

Chorus

G-------------------------------------------------------------
D-------------------------------------------------------------
A-------------------------------------8/----------------------
E1-1--6-6/1-1-1--6-6/1-1-1--6-6/1-1-1----6-6/1-1-1--6-6/1-1-1-

Radio what's new...

G---------------------------------
D--5-5-8h10h8--10--12/------------ you can also play the last 5
A-----------------------8-7-5-7-8- notes an octave higher...
E---------------------------------

Rest...(you can slap and pop here..it'll sound good)and it continues:

G-----------------------------------------------------------
D----------------------------/12----------------------------
A----------------------1-1-1--------------------------------
E1-1-1-1-1--3-3-3-3-3--------------3-3-3-3-3-3-4-5-6--1-1---

G-----------------------------------------------------------
D------------------------------------------------------/12--
A----------------------1-1-1-1-1--2-2-2-2-2--5-5-5-5-5------
E1-1-1-1-1--3-3-3-3-3---------------------------------------

Then play the pre chorus

Chorus:first part with no bass...it enters like this:

G-----------------------------------------------------------
D--------------------------5---8h10h8--10-------------------
A-8----------------------------------------8-7-5-7-8--------
E----6-6/1-1-1--6-6/1-1-1-----------------------------------

Rest after the chorus...then

G------------------------------------------
D------------------------------------------
A---------------------------------1--------
E-1------3--------6--------3----------1-1--

G--------------------------------------------------------------
D-3-3-3-3-3------------5-5-5-5-5-------------------------------
A------------------------------------------1-1-1-1-1-2-2-2-2-2-
E------------1-1-1-1-1-----------3-3-3-3-3---------------------

G-------------8-9-11-9-8---------------------------------------
D--------9-11------------11-9/---------------------------------
A-5-5-5------------------------3-3-3-3-3-3-3-3--1--------------
E--------------------------------------------------1-1---------

Ending:

G--------------------------------------------------------------
D-3-3-3-3-3------------5-5-5-5-5-------------------------------
A-------------------------------------------1-1-1-1-1--2-2-2-2-
E-----------1-1-1-1-1------------3-3-3-3-3---------------------

G------------------5-----5---5---5--
D-----------------------------------  Fadin' out...
A-5-5-5-5-2----3-3---3-3---x---3----
E-----------------------------------

This is my first real tab so I hope you'll find this a nice one...
Comments and suggestion at romagna@c-a-r-s.it
-Niclarke-
  development and support by
dmitry ivanov