rock
 
|tablatures   |lyrics   |discussion forums   |more tabs @ XGuitar.com

Queen tabs

One Year Of Love bass tab

QUEEN*QUEEN*QUEEN*QUEEN*QUEEN*QUEEN*QUEEN*QUEEN*
One year of love - A kind of magic Album - 
writen by John Deacon
Tab by André Aguilar 

0.04
|--------4-4--------------------4-4----------|
|-----4-------5--------------4-------5-----7-|
|--5-------------7--------5-------------7----|
|-------------------5------------------------| 

|------------6-----------------14/---------------|
|4\9----------9----------------------------------|
|-----9-----9------9--9-10---12------------------|
|----------------------------------3---3-5--5--5-|

0.56                                                                 
|----------------------------14----14---------4-----|
|-----4/2-------5----------14----14--14--0--4-------|
|--5----- 2-------7--0------------------------------|
|---------------------------------------------------|

|--------------------------------------------|
|-5----7--7-----5--5\11----------------------|
|--7----7--------7-----14---14-14------------|
|--------------------------14----14--14/7----|

1.30
|--------------------------------------------------|
|----9--9------------------------------------------|
|---9--------9--9--7/9/10---12--12--10--12--12--12-|
|--------------------------------------------------|

|----------4--4--------------------------11---|
|--------4-------------2-2---------0--4-11--9-|
|------5----------2-------0--0--0\2-----------|
|-------------------3-------------------------|

2.06                                                         
|---------------------4--4----4----------------|
|--9--9/5-5-----------------4---4--------------|
|----------7-----------------------2--2--2-----|
|-------------5--5--5---------------------2--2-|

|---------------------4----4---------------------|
|---7/----7--------4----5----7-7\12-12----9------|
|-10----10-----5-----2----7-------------9--------|
|------------------------------------------------|

2.59
|---------------------------0----------------------|
|--5----7-7-7--------------4-----------------------|
|----7---------------------------------------------|
|--------------7/2-2--7-2------5--3--5-5-5--3--5-5-|

|-------4--4------4--------------------------|
|----4---------5---7-7-7\12-------9---5------|
|-5----------------------------9--------7----|
|---------------------------10------------5--|

|----------------------|
|----------------------|
|--------------------5-|
|--3--5-5-5-3--5-5-5---|

Tab by André Aguilar (crazylittlethingcalledlove@hotmail.com
If you have any suggestions or corrections
feel free to mail me). 11 january 2002 Portugal
  development and support by
dmitry ivanov