rock
 
|tablatures   |lyrics   |discussion forums   |more tabs @ XGuitar.com

Queen tabs

Now Im Here bass tab

From: MORETTI 
Artist:	queen
Album:	greatest hits
Song:	now i'm here

bass tab

                             Now I'm Here
                                QUEEN
                                             from greatest hits - book



typed by MoReTtI = fam@zipmail.com.br


         w   19x    h  q  e  e  +  q       e  e  e  e  +              
----||---r---||-----r--r--r-----|----------------------|--------------
4:--||*--e--*||-----e--e--e-----|--------5/7-----------|--------------
4:--||*--s--*||-----s--s--s--0--|--0----------7--7--0--|--------------
----||---t---||-----t--t--t-----|----------------------|--------------
                                                                      

q    q    e  e  e  e  +  q    q    e  e  e  e  +                      
----------------------|------------------------|----------------------
---5/7--5/7--5--------|-----5/7--5/7--5--------|----------------------
0---------------7--0--|--0---------------7--0--|----------------------
----------------------|------------------------|----------------------
                                                                      

e  e  q     q  q  q  q  +  q  q  +  Q  e  +  q  q  +  Q  e  +         
------------------------|-----4-----4-----|-----4-----4-----|---------
------------------------|-----------------|-----------------|---------
0--0--0-----0--0--1--2--|--2-----------2--|--2-----------2--|---------
------------------------|-----------------|-----------------|---------
                                                                      

q  q  +  Q  e  +  q  e  e  e  e  e  e      q  e  e  e  q  e  +        
---4-----4-----|-----4--2--4--2--4--2--||--------------------|--------
---------------|-----------------------||-----------2--------|--------
2-----------2--|--2--------------------||-----------------2--|--------
---------------|-----------------------||--0--3--4-----0-----|--------
                                                                      

q  q  e  e  e  e     e  e  q  +  e  e  e  e                           
------------------|--r-----------------r-----|------------------------
------------------|--e-----------------e-----|------------------------
2--0-----------5--|--s--5-----------2--s--2--|------------------------
------3--4--0-----|--t-----5-----5-----t-----|------------------------
                                                                      

q  e  e  e  e  e  e  +  e  e  e  e     e  e  e  e                     
---------------------|-----------------------------|------------------
------------0--2-----|-----------------------------|------------------
---0--1--2-----------|-----------------------------|------------------
2-----------------0--|--0--0--0--0-----0--0--0--0--|------------------
                                                                      

e  e  e  e     e  e  e  e     q  e  e     e  e  e  e                  
---------------r-----r-----|-----r--------------------|---------------
---------------e-----e-----|-----e--------------------|---------------
---------5-----s--0--s--0--|--2--s--2-----2--2--2--0--|---------------
0--0--0--------t-----t-----|-----t--------------------|---------------
                                                                      

e  e  e  e     e  e  e  e    e  e  e  e     e  e  e  e                
--------------------------|-----------------------------|-------------
------------------0--1--1/|--2--2--2--2-----2--2--2--2--|-------------
2--2--2--2-----2----------|-----------------------------|-------------
--------------------------|-----------------------------|-------------
                                                                      

e  e  e  e     e  e  e  e     e  e  e  e     e  e  e  e  +            
---------------r-----r-----|-----------------------------|------------
2--2--2--0-----e--0--e--0--|--------0--1-----2--0--1-----|------------
---------------s-----s-----|--2--2--------------------2--|------------
---------------t-----t-----|-----------------------------|------------
                                                                      

e  e  e  e     e  e  e  e  +  e  e  e  e     e  e  e  e               
---------------------------|-----------------------------|------------
------0--1-----2--0--1--2--|--2--2--2--2-----2--2--2--2--|------------
2--2-----------------------|-----------------------------|------------
---------------------------|-----------------------------|------------
                                                                      

e  e  e  e     e  e  e  e     e  e  e  e     e  e  e  e               
---------------r-----r-----|--------r--------r-----r-----|------------
2--2--2--------e--2--e-----|--------e--0-----e--0--e-----|------------
---------2-----s-----s--2--|--0--0--s--------s-----s--2--|------------
---------------t-----t-----|--------t--------t-----t-----|------------
                                                                      

e  e  e  e  +  Q  e     e  e  e  e     e  e  e  e                     
r-----r--------------|--------r--------r-----r-----|------------------
e-----e--2-----2-----|--------e--------e-----e-----|------------------
s--2--s-----------2--|--4--4--s--------s-----s--6--|------------------
t-----t--------------|--------t--2-----t--2--t-----|------------------
                                                                      

e  e  e  e  +  q  +  e  e  e     w  +  h     e  e  e  e  +  w  +      
r-----r-----------------------|-----|--------------r-----|-----|------
e-----e--6-----6-----6--------|-----|--------------e-----|-----|------
s--6--s-----------------7--7--|--7--|--7-----------s-----|-----|------
t-----t-----------------------|-----|--------2--2--t--3--|--3--|------
                                                                      

w     H  +  e  e  +  H  +  e  e  +  q  e  e     e  e  e  e            
---|--------------|--------------|--------------------------||--------
---|--------------|--------------|--------------------------||--------
---|--2-----2--2--|--2-----2--2--|--2--2--2-----2--2--2-----||--------
3--|--------------|--------------|-----------------------0--||--------
                                                                      

q  e  e     e  q  e  +  q  q     e  e  e  e                           
---------------------|-----------------------|------------------------
------------2--------|-----------------------|------------------------
------------------2--|--2--0--------------5--|------------------------
0--3--4--------0-----|-----------3--4--0-----|------------------------
                                                                      

e  e  q  +  e  e  e  e     q  e  e     e  e  e  e  +                  
r-----------------r-----|--------------------------|------------------
e-----------------e-----|-----------------0--2-----|------------------
s--5-----------2--s--2--|-----0--1-----2-----------|------------------
t-----5-----5-----t-----|--2--------------------0--|------------------
                                                                      

e  e e  e     e  e  e  e  +  q  q     e  e  e  e                      
--------------------------|-----------r-----r-----|-------------------
--------------------------|-----------e-----e-----|-------------------
---5/7--7-----7--7--7--7--|--7--5-----s--0--s--0--|-------------------
0-------------------------|-----------t-----t-----|-------------------
                                                                      

q  e  e     e  e  e  e     e  e  e  e     e  e  e  e                  
------------------------|-----------------------------|---------------
---0--1-----2--0--1--2--|--2--2--2--2-----2--2--2--2--|---------------
2-----------------------|-----------------------------|---------------
------------------------|-----------------------------|---------------
                                                                      

e  e  e  e     e  e  e  e     e  e  e  e     e  e  e  e  +            
---------------r-----r-----|-----------------------------|------------
2--2--2--0-----e-----e-----|--------0--1-----2--0--1-----|------------
---------------s--0--s--0--|--2--2--------------------2--|------------
---------------t-----t-----|-----------------------------|------------
                                                                      

e  e  e  e     e  e  e  e  +  e  e  e  e     e  e  e  e               
---------------------------|-----------------------------|------------
------0--1-----2--0--1--2--|--2--2--2--2-----2--2--2--2--|------------
2--2-----------------------|-----------------------------|------------
---------------------------|-----------------------------|------------
                                                                      

e  e  e  e     e  e  e  e     e  e  e  e     e  e  e  e               
---------------r-----r-----|--------r--------r-----r-----|------------
---------------e-----e-----|--------e--------e-----e-----|------------
7--7--7--------s--5--s-----|--------s--3-----s--3--s--0--|------------
---------5-----t-----t--5--|--3--3--t--------t-----t-----|------------
                                                                      

e  e  e  e  +  Q  e     e  e  e  e     e  e  e  e                     
r-----r--------------|-----------------r-----r-----|------------------
e-----e--0-----0--0--|--1--1--1--2-----e--2--e--3--|------------------
s--0--s--------------|--2--2--2--2-----s--2--s--4--|------------------
t-----t--------------|-----------------t-----t-----|------------------
                                                                      

e  e  e  e  +  e  e  +  e  e  e     w  +  h     e  e  e  e  +         
r-----r--------------------------|-----|--------------r-----|---------
e--3--e--4-----4--4-----4--------|-----|--------------e-----|---------
s--4--s--4-----4--4-----4--5--5--|--5--|--5-----------s--0--|---------
t-----t--------------------------|-----|--------0--0--t-----|---------
                                                                      

w  +  w      e  e  e  e     e  e  e  e                                
---|-----||-----------------------------|-----------------------------
---|-----||-----------------------------|-----------------------------
0--|--0--||--------------------------7--|-----------------------------
---|-----||--7--7--7--7-----7--7--7-----|-----------------------------
                                                                      

e  e  e  e     e  e  e  e     e  e  e  e     e  e  e  e               
---------------------------|-----------------------------|------------
---------------------------|-----------------------------|------------
7--7--7--------------------|--------------------------7--|------------
---------5-----5--5--5--6--|--7--7--7--7-----7--7--7-----|------------
                                                                      

e  e  e  e     e  e  e  e     e  e  e  e     e  e  e  e  +            
---------------------------|-----------------------------|------------
---------7-----7--7--7--9--|-----------------------------|------------
7--7--7--------------------|--------------------5--6--7--|------------
---------------------------|--7--7--7--7-----7-----------|------------
                                                                      

e  e  e  e  +  e  e     e  s s     e  e  e  e     e  e  e  e  +       
--------------------------------|-----------------------------|-------
---4--6--7-----7--6-----4-------|-----------------------------|-------
7--------------------------5p6--|--------------------5--6--7--|-------
--------------------------------|--7--7--7--7-----7-----------|-------
                                                                      

e  e  e  e  +  e  e     e  s s     e  e  e  e     e  e  e  e  +       
--------------------------------|-----------------------------|-------
---4--6--7-----7--6-----4-------|-----------------------------|-------
7--------------------------5p6--|--------------------5--6--7--|-------
--------------------------------|--7--7--7--7-----7-----------|-------
                                                                      

e  e  e  e  +  e  e     e  s s     e  e  e  e     e  e  e  e  +       
--------------------------------|-----------------------------|-------
---4--6--7-----7--6-----4-------|-----------------------------|-------
7--------------------------5p6--|--------------------5--6--7--|-------
--------------------------------|--7--7--7--7-----7-----------|-------
                                                                      

e  e  e  e  +  e  e  e  e     e  e  e  e     e  e  e  e  +            
---------------------------|-----------------------------|------------
---4--6--7-----7--6--7--6--|--9--9--9--9-----9--9--9-----|------------
7--------------------------|--------------------------7--|------------
---------------------------|-----------------------------|------------
                                                                      

e  e  e  e  +  e  e  e  e     e  e  e  e     e  e  e  e  +            
---------------------------|-----------------------------|------------
---6-----7-----7--6--7--8--|--9--9--9--9-----9-----------|------------
7-----7--------------------|--------------------9--8--7--|------------
---------------------------|-----------------------------|------------
                                                                      

e  e  e  e  +  e  e  e  e     e  e  e  e     e  e  e  e               
---------------------------|-----------------------------|------------
------6--7-----7--6--7--8--|--9--9--9--9-----9--9--9--9--|------------
7--7-----------------------|-----------------------------|------------
---------------------------|-----------------------------|------------
                                                                      

e  e  e  e     e  e  e  e     e   e   e  e   e  e   e  e              
---------------------------|----------r------r------r------|----------
9--9--9--9-----9--9--9--9--|--9---9---e--10--e--10--e--11--|----------
---------------------------|--10--10--s--10--s--10--s--12--|----------
---------------------------|----------t------t------t------|----------
                                                                      

e  e   e  e   h      e  e  e  e  e  e  e  e                           
r------r----------|--8--8--r--9--r--9--r--10--|-----------------------
e--11--e--12--12--|--9--9--e--9--e--9--e--11--|-----------------------
s--12--s--12--12--|--------s-----s-----s------|-----------------------
t------t----------|--------t-----t-----t------|-----------------------
                                                                      

e  e   e  e   Q      e       w           w   8x  h  q  e  e  +        
r--10--r--11--11-----14--||--14-----||---r---||--r--r--r-----||-------
e--11--e--11--11-----12--||--12-----||*--e--*||--e--e--e-----||-------
s------s-----------------||---------||*--s--*||--s--s--s-----||-------
t------t-----------------||---------||---t---||--t--t--t--0--||-------
                                                                      

q     e  e     e     q     e  +  q     q     e  e  e  e               
------------------------------|--------------------------|------------
---------------2--------------|--------------------------|------------
---------------------------2--|--2-----0--------------5--|------------
0-----3--4-----------0--------|--------------3--4--0-----|------------
                                                                      

e  e  q  +  e  e  e  e     Q     e  e  e  q                           
r-----------------r-----|-----------r--------|------------------------
e-----------------e-----|-----------e--------|------------------------
s--5-----------2--s--2--|--------0--s--0-----|------------------------
t-----5-----5-----t-----|--2--------t-----0--|------------------------
                                                                      

q  q  q  q     q  q     e     q     e  e     e  e  e  e  +            
---------------------------|-----------------------------|------------
---------0-----2-----------|-----------------------------|------------
0--1--2--------------------|-----------------------------|------------
------------------0-----6--|--7-----7--7-----7--7--7--0--|------------
                                                                      

e  e  e  e  +  e  e  e  e     e  e  e  e     e  e  e  e  *            
---------------------------|-----------------------------|------------
---------------------------|-----------------------------|------------
---------------------------|--------------------5--6--7--|------------
0--2--4--5-----5--4--5--6--|--7--7--7--7-----7-----------|------------
                                                                      

e  e  e  e  +  e  e  e  e     e  e  e  e     e  e  e  e  +            
---------------------------|-----------------------------|------------
---4--6--7-----7--6--7--8--|--9--9--9--9-----9--7--------|------------
7--------------------------|-----------------------9--7--|------------
---------------------------|-----------------------------|------------
                                                                      

e  e  e    e  +  e    e  e  e     e  e  e  e     e  e  e  e  +        
-------------------------------|-----------------------------|--------
---6--7--6/7-----7--6/7--7--7--|--9--9--9--9-----9--7--------|--------
7------------------------------|-----------------------9--7--|--------
-------------------------------|-----------------------------|--------
                                                                      

e  e  e  e  +  e  e  e     e  e  e  e     e  e  e  e  *               
------------------------|-----------------------------|---------------
---4--6--7-----6--7--8--|--9--------------------------|---------------
7-----------------------|--------------------5--6--7--|---------------
------------------------|-----7--7--7-----7-----------|---------------
                                                                      

e  e  e  e  +  e    e  e  e     e  e  e  e     e  e  e  e  +          
-----------------------------|-----------------------------|----------
---------7-----7--5/6--7--8--|--9--9--9--9-----9--9--9-----|----------
7--7--7----------------------|--------------------------7--|----------
-----------------------------|-----------------------------|----------
                                                                      

e  e  e  e  +  e  e     e  s s     e  e  e  e     e  e  e  e  +       
--------------------------------|-----------------------------|-------
---------7-----7--6-------------|-----------------------------|-------
7--7--7-----------------7--5h6--|--------------------5--6--7--|-------
--------------------------------|--7--7--7--7-----7-----------|-------
                                                                      

e  e  e  e  +  e  e     e  s s      e  e  e  e     e  e  e  e         
--------------------------------||-----------------------------|------
---4--6--7-----7--6-----4-------||-----------------------------|------
7--------------------------5h6--||-----------------------------|------
--------------------------------||--7--7--7--7-----7--7--7--7--|------
                                                                      

e  e  e  e     e  e  e  e     e  e  e  e     e  e  e  e               
---------------------------|-----------------------------|------------
---------------------------|-----------------------------|------------
---------------------------|-----------------------------|------------
7--7--7--7-----7--7--7--7--|--7--7--7--7-----7--7--7--7--|------------
                                                                      

e  e  e  e     e  e  e  e  +  e  e  e  e     e  e  e  e  +            
---------------------------|-----------------------------|------------
9--9--9--9-----9--7--------|-----9--9--9-----9--7--6--9--|------------
---------------------9-----|-----------------------------|------------
------------------------7--|--7--------------------------|------------
                                                                      

e  e  e  e  +  e  e  e  e          e  e  e  e     e  e  e  e   6x     
---------------------------|--||-------------------------------||-----
9--7--6--9-----9--7--6--7--|--||*--9--9--9--9-----9--9--9--9--*||-----
---------------------------|--||*-----------------------------*||-----
---------------------------|--||-------------------------------||-----
                                                                      

                                                                      
||--------------------------------------------------------------------
||--------------------------------------------------------------------
||--------------------------------------------------------------------
||--------------------------------------------------------------------
                                                                      



======================================================================
==                      TABLATURE EXPLANATION                       ==
======================================================================

----------                ----------                ----t---
----5h8--- Hammeron       ----(8)--- Ghost          ----6--- Tap
----------                ---------- Note           --------
----5p8--- Pulloff        ----------                --------

----------                ----------                -----p--
----5/8--- Slide Up       -----x---- Dead           -----7-- Pop
----------                ---------- Note           --s-----
----5 8--- Slide Down     ----------                --5----- Slap 

----------                ||------|| Repeat         --------
----5~~~-- Vibrato        ||*----*||                ---5^--- Bend
----------                ||*----*||                --------
----------                ||------||                --------

----------                ----------                --------
-4:------- Time           ----------                --------
-4:------- Signature      ----------                --------
----------                ----------                --------

Rhythm:
  w = whole note            W = dotted whole
  h = half note             H = dotted half
  q = quarter note          Q = dotted quarter
  e = eighth note           E = dotted eighth
  s = sixteenth note        S = dotted sixteenth
  t = 32nd note             T = dotted 32nd
  x = 64th note             X = dotted 64th
  ^ = triplet
  development and support by
dmitry ivanov