rock
 
|tablatures   |lyrics   |discussion forums   |more tabs @ XGuitar.com

Queen tabs

My Fairy King bass tab

MY FAIRY KING
QUEEN
FROM THE ALBUM "QUEEN"
WRITTEN BY FREDDIE MERCURY
TABBED BY PETE COSGROVE
pete@innuendo.freeserve.co.uk

Timing - 190 bpm

G|----------------|-------------|-------------|--------------|---------------|-------------|
D|------------5---|---------5---|---------5---|--------------|-----------5---|-------------|
A|----------------|-------------|-------------|--------------|---------------|-------------|
E|3-3-3-3-3-3---3-|-3-3-3-3---0-|3-3--3-3---3-|-3--3--3-3--0-|3-3--3-3-3---3-|-3--3-3-3--0-|

G|---------------|--------------|----------------|--------------|-------------|----------------|
D|-----------5---|--------------|------------7---|--------------|-------------|------------6-7-|
A|---------------|--------------|----------------|--------------|-------------|------5-7-7-----|
E|3-3--3-3-3---3-|-3--3-3-3---0-|5-5---5-5-5---5-|-5--5-5-5---5-|5-5--5-5-5-5-|5-7-8-----------|
			   Verse
G|----------|---------|---------|-----------------|-----------------|-----------------|
D|----------|---------|---------|-----------------|-----------------|-----------------|
A|3----5----|---------|---------|-----------------|-----------------|-----------------|
E|----------|3---let--|ring-----|-----------------|-----------------|-----------------|

G|-------|-------------|------------|------------|------------|------|------------|-----14-----|
D|-------|-------------|------------|------7--7--|------7--7--|------|8--7--5-----|7-----------|
A|7----7-|5---7---5--2-|3---2-------|------------|------------|------|---------8--|------------|
E|-------|-------------|------3--4--|5--5--------|5--5--------|5--5--|------------|5-----------|
				    Chorus
G|------9----|----7-5-|------------|------------|--------------|---------------|--------|------7---|
D|-----------|--------|7-----------|------------|--------------|---------------|--------|5-------5-|
A|7---7------|8-------|----4-5---6-|7--7-77---7-|5---7---5---2-|3-2-3-5--------|7-----7-|----------|
E|-----------|--------|------------|------------|--------------|--------333-7--|--------|----------|

G|------------|--------|-------------|-------------|-------------|-------------|-------------|
D|------------|--------|-----------7-|-----------7-|-----------7-|-----------7-|-------------|
A|3---2-0-----|5-------|-------------|-------------|-------------|-------------|-------------|
E|---------3--|--------|5--55-5------|5--55-5------|5--55-5------|5--55-5------|5--55--5--55-|

G|---------------|----------------|-----3-3------3-3-|----------5-|7-777-77-777-----|------------------|
D|---------------|----------------|------------------|-------5----|-------------977/|0-003-0-05-0-07---|
A|---------------|5-55--5-5-55--5-|1-11-----1-33-----|1-11-1------|-----------------|---------------057|
E|5--55--5--55-5-|----------------|------------------|------------|-----------------|------------------|

G|---------------|---------------|---------------|----------------|-----------------|------------------|
D|------7-------7|------7------7-|-----9-------9-|------9-------9-|-----------------|------------------|
A|5--55---5--55--|5--55---5-55---|7--77--7--77---|7--77---7--77---|-----------------|------------------|
E|---------------|---------------|---------------|----------------|3--33-3-3--333-3-|33-333-3-33-333-3-|

G|-----------------|--------------|--------------|--------------|-------------|--------------|
D|-----------------|--------------|-----7--8/7-7-|--------------|-------------|--------------|
A|-----------------|--------------|--------------|--------------|-------------|--------------|
E|33-333-3-33-33-3-|5-5--5-5-5--5-|5-5-----------|5-5--5-5-5--5-|-5--5-5-5--5-|5-5--5-5-5--5-|

G|-------------|--------------|-------------|--------|--------|
D|-------------|--------------|-------------|--------|--------|
A|-------------|--------------|-------------|3---let-|ring----|
E|-5--5-5-5--5-|5-5--5-5-5--5-|-5--5-5-5-5--|--------|--------|

The next section is Just Freddie Singing and playing Piano
Then Brian comes in on guitar (still no bass) Keep and ear out for the bass entering

G|3----------3-|2-----------|------3-3-3-3-|2------------|--------------|-------------|------------|
D|-------------|----2-------|----3-3-------|----2--------|--------------|-------------|------------|
A|-------------|------0---0-|1-------------|------0------|--------------|-------------|------------|
E|-------------|------------|--------------|---------555-|5--55--55--5--|5--5--5--55--|5--5--5--5--|

G|------------|------------|------------|------------|------------|------------|------------|
D|------------|------------|------------|------------|------------|------------|------------|
A|------------|------------|------------|------------|7--7--7--7--|------------|7--7--7--7--|
E|5--5--5--5--|5--5--5--5--|5--5--5--5--|5--5--5--5--|------------|5--5--5--5--|------------|

G|------------|------------|------------|------------|--------|-------------|----------|----------|
D|------------|------------|------------|------------|--------|-------------|----------|----------|
A|------------|------------|7--7--7--7--|7--7--7--7--|8----8/2|-------------|3----0----|5---------|
E|5--5--5--5--|5--5--5--5--|------------|------------|--------|2------------|----------|----------|


this song may take some time but it is worth the effort

pete@innuendo.freeserve.co.uk
  development and support by
dmitry ivanov