rock
 
|tablatures   |lyrics   |discussion forums   |more tabs @ XGuitar.com

Queen tabs

More Of That Jazz guitar tab

Queen: More of that jazz

some riffs

riff 1
|-----0------0---------------------|
|-------3---3--3------1------1-----|
|---1------1--------3---3---3--3---|
|-2-------2-------2--------2----2--|
|---------------3---------3--------|
|----------------------------------|

riff 2
|-------------------|
|---------------5---|
|---------------5---|
|---------------5---|
|---------------3---|
|-0--0--0-0---------|

riff 3
|-----------------------------|
|-----------------------------|
|-----------------------------|
|-----------------------------|
|-----------------------------|
|-12-0-11-0-10-0-9-0-0-7-8v---|

riff 4
|--------------------------------------------------------------------------|
|--------------------------------------------------------------------------|
|--------------------------------------------------------------------------|
|--------------------------------------------------------------------------|
|--------------------------------------------------------------------------|
|-0---12-0-0-11-0-0-10-0-0-9-0-0-10-0-0---6-0-0-7-0-0-8-0-0-9-0-0-10-0-0---|

|---------------------------------------------------------------------------|
|---------------------------------------------------------------------------|
|---------------------------------------------------------------------------|
|---------------------------------------------------------------------------|
|---------------------------------------------------------------------------|
|-10-0-0-12-0-0-14-0-0-15-0-0-17-0-0---15-0-0-14-0-0-12-0-0-10-0-0-12-0-0---|

E G# D# G
E A C G6
  development and support by
dmitry ivanov