rock
 
|tablatures   |lyrics   |discussion forums   |more tabs @ XGuitar.com

Queen tabs

Love Of My Life bass tab

QUEEN*QUEEN*QUEEN*QUEEN*QUEEN*QUEEN*QUEEN*QUEEN*QUEEN*QUEEN*QUEEN*QUEEN*QUEEN*QUEEN*
Love Of My Life
>From "A Night At The Opera"
writen by Freddie Mercury
Tab By: André Aguilar

0.21
|-----14-----------------------------17---------14--15-----15-14-19-----------------16-19-|
|--10------12---------17\15-----15-----14--------------15----------17-----15---17-19------|
|--------------------------15------------17--17------------------------15-----------------|
|---------------15------------------------------------------------------------------------|

1.04
|---------14-14-----12-14-16-19-19------10---17----------14-------10----12----10---|
|-------14-------12----------------------------14------14------8-8---------10------|
|-----12-----------------------------------------17--12----------------------------|
|--8---------------------------------8---------------------------------------------|

1.41
|---------15---15-14-12-10----------------14---------15----10-------14---------19--19-|
|-12-13-15------------------------------14---------15------------------------19--19---|
|------------------------------------12---------13-------------------------17---------|
|-------------------------------10----------------------------------------------------|

|-----17--------------------------17-15-14---------                         
|---14----16--------------12-14-----------17-15----...piano and guitar solo
|---------------22/15-15--------------------------
|-16---------15-------------------------------

2.48
|---------------------------14-------15----------------------------------------------10-|
|-5-----3-----14----12----14-------15-----------12----------10\12-----------------------|
|-----------------------12-------13-------13-12-----15--------------12-------10--11-12--|
|-------------------------------------------------15---13-------------------------------|

Tab by André Aguilar (crazylittlethingcalledlove@hotmail.com
If you have any suggestions or corrections
feel free to mail me). 11 january 2002 Portugal
  development and support by
dmitry ivanov