rock
 
|tablatures   |lyrics   |discussion forums   |more tabs @ XGuitar.com

Queen tabs

Lily Of The Valley bass tab

QUEEN*QUEEN*QUEEN*QUEEN*QUEEN*QUEEN*QUEEN*QUEEN*QUEEN*QUEEN*QUEEN*QUEEN*QUEEN*QUEEN*QUEEN*QUEEN
Lily Of The Valley
>From the Sheer Heart Attack Album
Writen by Freddie Mercury
Tab by André Aguilar

|--------------17-------------------------9-10-12-----------10-12-------15-14--12-15-14----|
|------------17--------------10---10-12--------------------------12--14--------------------|
|---3--2--0-------12--12-------10------10--------------------------------------------------|
|-3----------------------10-----------------------3-5--5-5--------------------------------8|

|-15-14-12-----------------------------------9-10-12-14-16-19---------------------------------|
|---------15-----3-2-0------------------------------------------------------------------------|
|-----------------------3-----3-5-----3-5-----------------------3---3---3---3---0------0--0---|
|-------------------------3-------3-------3-----------------------3---3---3---3----3-3--------|

|--------------------------------------------5-4-------|
|-10-9-7----------------2-3-5--------------------5-----|
|-------10-------3-5-----------------------------------|
|---------10---3-----3----------33-5-3-5-3-5-----------|

Tab by André Aguilar(crazylittlethingcalledlove@hotmail.com-please e-mail me 
if you have
any suggestions or corrections to make,feel free to do it...) 9-6-2001 
Setubal,Portugal
  development and support by
dmitry ivanov