rock
 
|tablatures   |lyrics   |discussion forums   |more tabs @ XGuitar.com

Queen tabs

Keep Yourself Alive bass tab

KEEP YOURSELF ALIVE
QUEEN
FROM THE ALBUM "QUEEN"
WRITTEN BY BRIAN MAY
TABBED BY PETE COSGROVE
pete@innuenod.freeserve.co.uk

  134Bpm (moderately fast)


  Guitar Intro

G|-----------------|-------------|------------|------------|------|----------------|----------------|
D|-----------------|-------------|------------|------------|------|/3-3-3--1/3-3-3-|1h3--3--1h3--3--|
A|-----------------|-------------|------------|---7/5------|---3--|----------------|----------------|
E|---------5555-5--|5--5--5-X-5--|5--5--5--5--|5-----------|3-----|----------------|----------------|

  play the following in all four verses
 
G|-------------------|--------------|--------2--2--|3------------|-------------|-------6-----|
D|*-1h3--3--1h3--3---|------1h3--3--|1h3--3--------|---0-1-3--3--|-------------|----6-----6--|
A|*------------------|1--1----------|--------------|-------------|3--3--3--33--|4-4----------|
E|-------------------|--------------|--------------|-------------|-------------|-------------|

		________________________________
	       |1.		  |2. 	 	Chorus
G|-------------|------------------|------------|------------|-------------|------------|--------------|
D|-------6-----|2--3---4---5-2---*|------------|------------|-------------|------------|--------------|
A|----6-----6--|---------------3-*|------------|5--5--5-----|5--5---------|5--4--2-----|-------5-5-5--|
E|4-4----------|------------------|5-5-5--5--5-|--------33--|------5-5-5--|---------3--|5-5-5---------|

  Interlude (after 2nd verse)
  After the 3rd verse go to the end section marked **

G|-----------------|-----------------|-----------------|-----------------|-----------------|------------------|
D|-----------------|-----------------|-----------------|-----------------|-----------------|------------------|
A|-----------------|-----------------|-----------------|----------7777---|-----------------|-----------7777---|
E|-----------------|-----------------|-----------------|--------------5--|-----------------|---------------5--|

G|------------|------------|------------|------------|------------|------------|--------|----------------|
D|------------|------------|------------|------------|------------|------------|0-1-2-3-|1h3--3--1h3--3--|
A|------------|------------|------------|------------|------------|----3-5-----|--------|----------------|
E|5--5--5--5--|5--5--5--5--|5--5--5--5--|5--5--5--5--|5--5--5--5--|5-5---------|--------|----------------|

G|----------------|
D|1h3--3--1h3--3--|Then go to the 3rd Verse
A|----------------|
E|----------------|

  
   **drum solo**

  then guitar solo
G|------------|------------|------------|--------------|-------------|------------|------------|
D|3--3--3-----|3--3--------|3--2--0-----|-----------3--|-------------|------------|3--2--0-----|
A|--------11--|------3--3--|---------1--|3-3-3---------|---------11--|------3--3--|---------1--|
E|------------|------------|------------|-------1-1----|1--1--1------|1--1--------|------------|
		Chorus
G|-------------|------------|-------------|------------|--------------|--------------------------------|
D|-------3-----|------------|-------------|------------|--------------|--------------------------------|
A|3-3-3-----0--|5--5--5-----|5--5---------|5--4--2-----|-------5-5-5--|7--let-ring-through next-4-bars-|
E|-------------|--------33--|------5-5-5--|---------3--|5-5-5---------|--------------------------------|
						Outro Chorus
G|------------------------|---11-12-13-14---/--|------------|-------------|------------|--------------|
D|---------------11-12-13-|14------------------|------------|-------------|------------|--------------|
A|------11-12-14----------|--------------------|5--5--5-----|5--5---------|5--4--2-----|-------5-5-5--|
E|12-14-------------------|--------------------|--------33--|------5-5-5--|---------3--|5-5-5---------|

G|------------|------------|------------|--------------|------------|-------------|------------|
D|3--3--3-----|3--3--------|3--2--0-----|-------3-3-3--|------------|-------------|------------|
A|--------11--|------3--3--|---------1--|3-3-3---------|5--5--5-----|5--5---------|5--4--2-----|
E|------------|------------|------------|--------------|--------33--|------5-5-5--|---------3--|

G|--------------|------------|-------------|4--3--1-----|-------------|------------|------------|
D|--------------|------------|-------------|---------2--|-------------|------------|------------|
A|-------5-5-5--|2--2--2-----|2--2---------|------------|------2-2-2--|2--2-02--2-0|2--2-02--2-0|
E|5-5-5---------|--------00--|------2--22--|------------|2--2---------|------------|------------|

G|------------|------------|------------|
D|------------|------------|------------|
A|2--2-02--2-0|2--2-02--2-0|2--2-02--2-0|
E|------------|------------|------------|

Fade Out

a
  development and support by
dmitry ivanov