rock
 
|tablatures   |lyrics   |discussion forums   |more tabs @ XGuitar.com

Queen tabs

Innuendo bass tab

INNUENDO 
QUEEN
FROM THE ALBUM INNUENDO
WRITTEN BY QUEEN

TABBED BY PETE COSGROVE
pete@innuendo.freeserve.co.uk



G|-----------------|-----------------|-----------------|-----------------|-----------------|-----------------|
D|-----------------|-----------------|-----------------|-----------------|-----------------|-----------------|
A|-----------------|-----------------|-----------------|-----------------|-----------------|-----------------|
E|0-------------let|ring-------------|0-------------let|ring-------------|4-------------let|ring-------------|

				      1st & 2nd Verse
G|-----------------|-----------------|-------------|-------------|---------------|--------------|
D|-----------------|---------------6/|*------------|-------------|---------------|--------------|
A|-----------------|-----------------|*------------|-----------7/|-----7---7-----|7-----------7/|
E|4-------------let|ring-------------|-0--0--0--0-0|0--0--0--0---|0--0---0---0-07|--------------|

G|------------|------------|------------|-------------|----------|--------------|--------------|
D|------------|------------|------------|-------------|----------|--------------|--------------|
A|------------|------------|------------|-----------7/|----------|--------------|--------------|
E|0--0--0--0-0|0--0--0--0-0|0--0--0--0-0|0--0--0--0---|4--4--4--4|4--4--4-4-45-4|4--4--4-4-55-5|
 			    
G|-------------|-------------|---------|---------------|----------|---------------|-----------|
D|-------------|-------------|---------|---------------|----------|---------------|-----------|
A|-------------|4--4--4--4---|---------|4--4-4--4--4-46|7---------|4--4-4--4--4---|-----------|
E|4--4--4-4-4-4|-----------46|7----6--2|---------------|----24-2--|-------------46|7----6--2--|

		 __________________ ___________________
		 |1.		   |2.		      |
G|---------------|-----------------|------------------|--------------|---------|---------|---------|---------|
D|--------------4|6-6-6-6-6-6-6---*|6-6-6-66-6-66-6666|7----let--ring|let--ring|let--ring|let--ring|let--ring|
A|-------------6-|--------------7/*|------------------|--------------|---------|---------|---------|---------|
E|4--4-4--4--4---|-----------------|------------------|--------------|---------|---------|---------|---------|

The next section is the Acoustic (spanish) guitar solo

The the electric guitar solo

There is no Bass in this section

  The next bass section is the 
  3rd Verse
G|-------------|-------------|---------------|--------------|------------|------------|------------|-------------|
D|-------------|-------------|---------------|--------------|------------|------------|------------|-------------|
A|-------------|-----------7/|-----7---7-----|7-----------7/|------------|------------|------------|-----------7/|
E|-0--0--0--0-0|0--0--0--0---|0--0---0---0-07|--------------|0--0--0--0-0|0--0--0--0-0|0--0--0--0-0|0--0--0--0---|

G|----------|--------------|--------------|-------------|-------------|---------|---------------|----------|
D|----------|--------------|--------------|-------------|-------------|---------|---------------|----------|
A|----------|--------------|--------------|-------------|4--4--4--4---|---------|4--4-4--4--4-46|7---------|
E|4--4--4--4|4--4--4-4-45-4|4--4--4-4-55-5|4--4--4-4-4-4|-----------46|7----6--2|---------------|----24-2--|

G|-------------|-----------|----------|-------------|-------------|---------|--------------|-------------|
D|-------------|-----------|----------|-------------|-------------|---------|--------------|6-6--6--6---6|
A|4--4--4--4---|-----------|4-----4-46|7---------2--|4--4--4--4---|---------|-------------6|-------------|
E|-----------46|7----6--2--|----------|----24-2-----|-----------46|7----6--2|4--4-4-4-4-4--|-------------|

G|---------------|------------|---------|
D|---------------|6-6--6--6--6|7let-ring|
A|--------------6|------------|---------|
E|4-4-4-4-4-4-4--|------------|---------|


pete@innuendo.freeserve.co.uk

ENJOY!!!!!!!!!
  development and support by
dmitry ivanov