rock
 
|tablatures   |lyrics   |discussion forums   |more tabs @ XGuitar.com

Queen tabs

In The Lap Of The Gods... Revisited guitar tab

Queen: In The Lap Of The Gods... Revisited

32"
|-------2-----------------------------------------------------------------2--|
|-2-3-2-3-------------------------2----------------------------------2----3--|
|-2-2-2-2-------------------------2----------------------------------2----2--|
|-2-2-2-0------0------------------2---7------------------------------2----0--|
|-0-0-0-----3----2---7---5--7-4---0---5---4--5-7---6--7-/10-----10-5\0-------|
|-----------------------------------------5----------------------------------|

1'25"
|-----------2----------------------------------------------------------------|
|-22--2-22--3-------------------------2-----------------------------------2--|
|-22--2-22--2-------------------------2-----------------------------------2--|
|-22--2-22--0------0------------------2--(7)------------------------------2--|
|-00--0-00------3----2---7---5--7-4--\0---5---4v--5-7---6--7-/10-----10-5\0--|
|--------------------------------------------(5)-----------------------------|
...

  development and support by
dmitry ivanov