rock
 
|tablatures   |lyrics   |discussion forums   |more tabs @ XGuitar.com

Queen tabs

In The Lap Of The Gods bass tab

QUEEN
In The Lap Of The Gods (Revisited)
>From the Sheer Heart Attack Album
Writen by Freddie Mercury
Tab by André Aguilar

BASS TAB
|---19/---19/---19/----19/-----------8---8-9--------------------|
|-0-----0-----0-----0-------------------------------------------|
|---------------------------7--7-7-6---6--------5-4-3---5-4-3-2-|
|---------------------------------------------------------------|

|-----------------------------------------------------0----------14--|
|-2--2-0--------------------2--0--2------------2-1-2----5------------|
|--------0-0-0---5--3--5--2---------4-0--5-0-5------------5-0---12---|
|--------------------------------------------------------------------|

|----19/---19-----------19/----19---------16--------------------|
|--0-----0----1919-17-0-----0-----19-17-----------------2-0-----|
|--------------------------------------19-----19-18/14------4-3-|
|---------------------------------------------------------------|

|-----------------------|------------------------------0--------|
|-----------2--2-0------|--------2-0-2-----------2-1-2---5------|
|-5-4-3-2----------0-0--|5-3-5-2-------4-0--5-0-5-----------5--0|
|-----------------------|---------------------------------------|
                        Repeat this last riff ´till the end

Tab by André Aguilar(crazylittlethingcalledlove@hotmail.com-please
e-mail me if you have any suggestions or corrections to make,please feel 
free to do it...)
9-6-2002 Setubal,Portugal
  development and support by
dmitry ivanov