rock
 
|tablatures   |lyrics   |discussion forums   |more tabs @ XGuitar.com

Queen tabs

I Want It All bass tab

Author:Queen
Song:I want it all

This song is really powerful so i'm sure you'll have a good time
playing this song...this is pretty easy but very cool...

Intro:vocals...then...

G-----------------------------------------------------
D-----------------------------------------------------
A-----------------------------------------------------
E--5----------7-5-7---3-2-3---5-3-5---7-7-5-----------

Vocals enter:

G-------------------------------------------
D-------------------------------------------
E-------------------------------------------
A---7-5-7---3-2-3---5-3-5---9-8-7-x-7-5-----

G-----------------------------------------------------
D-----------------------------------------------------
A-----------------------------------------------------
E---7-5-7---0-2-3-2-3---3-4-5-3-5-3---7--5-5-5--------

Pre Chorus:

G-----------------------------------------------------
D-----------------------------------------------------
A-5-5-2-4-5------------------------------5------------
E-----------3--3-5-5-2-3-5-3--3-5-5--5/7---7/3-3------

Chorus:I WANT IT ALL!!!!!

G----------------------------------------------------------
D----------------------------------------------------------
A----------------------------------------------------------
E-7-5-7--3-2-3--5-7-5--7-7-5--7-5-7--3-2-3--5-7-5--7-7-5---

Verse

G------------------------------------------
D------------------------------------------
A------------------------------------------
E-7-7--7---3-3--3---5-5--5---7-7--x-5-5----

G------------------------------------------
D------------------------------------------
A------------------------------------------
E-7-7--7---3-3--3---5-5--5---7-7--5/7-5-5--

Here play pre chorus x1 then chorus....

Interlude
G----------------------------------------------------(16)--
D----------------------------------------------------------
A----------------------------------------------------------
E-7-----------7---------7---------7----------7-------------

Guitar solo:

G-----------------------------------------------------------------
D-----------------------------------------------------------------
A-----------------------------------------------------------------
E-7-7-7-7-7-7-7-7-3-3-3-3-3-3-3-3-5-5-5-5-5-5-5-5-0-0-0-0-0-0-0-0-

G-----------------------------------------------------------------
D-----------------------------------------------------------------
A-------------------2-5-2---2-5-2---4-7-4---4-7-4-7-5-4-----------
E-7-7-7-7-7-7-7-7-3-------3-------5-------5-------------7-5-3-2-0-

G-----------------------------------------------------------------
D-----------------------------------------------------------------
A-------------------------------------------------5/7-7-7-7-7-7-7-
E-7-7-7-7-7-7-7-7-3-3-3-3-3-3-3-3-5-5-5-5-5-5-0-0-----------------

G-----------------------------------------------------------------
D-----------------------------------------------------------------
A-----------------------------------------------------------------
E-7-7-7-7-7-7-7-7-3-3-3-3-3-3-3-3-5-5-5-5-5-5---3-2-3-2--5--------

Here play pre-chorus...first part of the chorus with no bass...
Here it comes...

G-----------------------------------------------------------------
D-----------------------------------------------------------------
A-----------------------------------------------------------------
E-5--7-5-7--3-2-3--5-7-5--7-7-5--7-5-7--3-2-3--5-7-5--7-7-5-------

Ending...
G--------------------------------------------------
D--------------------------------------------------
A--------------------------------------------------
E--3---3---3-----/15/------/15/------/15/----------

That's all..I think that this is really a nice tab...
There is nothing to say about this song...fantastic!!

Peace...love...and smoke your own dope!!!

-Niclarke-
  development and support by
dmitry ivanov