rock
 
|tablatures   |lyrics   |discussion forums   |more tabs @ XGuitar.com

Queen tabs

Gimme The Prize guitar tab

Gimme The Prize
Words and music by Brian May

Transcribed by Pinter Denes

intro solo

|-7b___9vv-----7--4--------------------------|
|x-------------------7--6--5--4--------------|
|--------------------------------7--6--4bv---|
|--------------------------------------------|
|--------------------------------------------|
|--------------------------------------------|



|-----------------------------------------------------------|
|-6b__8r_6p4-6p4-6p4-5p4---4--------------------------------|
|------------------------6---7p6p-4----x6--x4b-----------xx-|
|-----------------------------------------------6p4------xx-|
|---------------------------------------------------6p4\-xx-|
|-----------------------------------------------------------|



|------------------------------------------------------------------------|
|------------------------------------------------------------------------|
|-t9p6t9p4t9p4t9p4t9p5t9p4t9p5t9p6t9p5t9p4t9p5t9p6t9p5t10p5t10p6t10p7t10p6
|------------------------------------------------------------------------|
|------------------------------------------------------------------------|
|------------------------------------------------------------------------|



|--------------------------------------------------------------------|
|--------------------------------------------------------------------|
t10p5t10p6t10p7t10p6t10p5t10p6t10p7t10p8t10p7t10p7t10p8t11p7t11p8t11p9
|--------------------------------------------------------------------|
|--------------------------------------------------------------------|
|--------------------------------------------------------------------|



|----------------------------------------------------------------------|
|----------------------------------------------------------------------|
t11p8t11p7t11p8t11p9t11p8t12pXt12p9t12p10t12p9t12p8t12p9t12p10t12p8t12p9
|----------------------------------------------------------------------|
|----------------------------------------------------------------------|
|----------------------------------------------------------------------|


|--------------------------------------------------------------------|
|--------------------------------------------------------------------|
t12p10t13p9t13p10t13p11t14p9t14p10t14p11t14p10t14p11t14p10t14p11t14p12
|--------------------------------------------------------------------|
|--------------------------------------------------------------------|
|--------------------------------------------------------------------|


|------------------------------------------------------------------|
|---------------------------------------_____----_____-------------|
t15p10t15p11t15p12t15p12t15p13t15p11t15p12h13t15p13p12t16p12t16p14-|
|------------------------------------------------------------------|
|------------------------------------------------------------------|
|------------------------------------------------------------------|



|---------------------------------------------------------------------------|
|--------------------t18p14t18p15t18p16t19p17t19p18--19--20/--21--21b__22v--|
|13t17p14t17p15t17p16-------------------------------------------------------|
|---------------------------------------------------------------------------|
|---------------------------------------------------------------------------|
|---------------------------------------------------------------------------|
  development and support by
dmitry ivanov