rock
 
|tablatures   |lyrics   |discussion forums   |more tabs @ XGuitar.com

Queen tabs

Get Down Make Love bass tab

G|----8-----8---------8-----8---------8-----8---------8-----8---------8-----8-----|
D|--------------------------------------------------------------------------------|
A|-6-----6---------6-----6---------6-----6---------6-----6---------6-----6--------|
E|--------------------------------------------------------------------------------|


G|----8-----8---------8-----8---------8-----8---------8-----8---------8-----8-----|
D|--------------------------------------------------------------------------------|
A|-6-----6---------6-----6---------6-----6---------6-----6---------6-----6--------|
E|--------------------------------------------------------------------------------|


G|----8-----8---------8-----8---------8-----8---------8-----8---------8-----8-----|
D|--------------------------------------------------------------------------------|
A|-6-----6---------6-----6---------6-----6---------6-----6---------6-----6--------|
E|--------------------------------------------------------------------------------|


G|----8-----8---------8-----8---------8-----8---------8-----8---------8-----8-----|
D|--------------------------------------------------------------------------------|
A|-6-----6---------6-----6---------6-----6---------6-----6---------6-----6--------|
E|--------------------------------------------------------------------------------|


G|-----------------12-12-12-10----------------------12-12-12-10------|
D|--------------5--------------12-10------------5---------------12---|
A|--------------------------------------------5----------------------|
E|-3--3--3--3-3----------------------3--3--3-------------------------|


G|----------------12-12-12-10---------12--12-10----------------------|
D|------------5---------------12----------------12-10----------------|
A|----------5--------------------10----------------------------------|
E|-3--3--3--------------------------------------------3-----3-----3--|


G|----8-----8---------8-----8---------8-----8---------8-----8---------8-----8-----|
D|--------------------------------------------------------------------------------|
A|-6-----6---------6-----6---------6-----6---------6-----6---------6-----6--------|
E|--------------------------------------------------------------------------------|


G|----8-----8---------8-----8---------8-----8---------8-----8---------8-----8-----|
D|--------------------------------------------------------------------------------|
A|-6-----6---------6-----6---------6-----6---------6-----6---------6-----6--------|
E|--------------------------------------------------------------------------------|


G|----8-----8---------8-----8---------8-----8---------8-----8---------8-----8---------8-----8-|
D|--------------------------------------------------------------------------------------------|
A|-6-----6---------6-----6---------6-----6---------6-----6---------6-----6---------6-----6----|
E|--------------------------------------------------------------------------------------------|


G|-----------------12-12-12-10----------------------12-12-12-10------|
D|--------------5--------------12-10------------5---------------12---|
A|--------------------------------------------5----------------------|
E|-3--3--3--3-3----------------------3--3--3-------------------------|


G|----------------12-12-12-10---------12--12-10----------------------|
D|------------5---------------12----------------12-10----------------|
A|----------5--------------------10----------------------------------|
E|-3--3--3--------------------------------------------3-----3-----3--|


G|-------------------------------------------------------------------------------------------|
D|-------------------------------------------------------------------------------------------|
A|-------------------------------------------------------------------------------------------|
E|-0------0------0------0------0------0------0------0------0------0------0------0------0-----|


G|-------------------------------------------------------------------------------------------|
D|-------------------------------------------------------------------------------------------|
A|-------------------------------------------------------------------------------------------|
E|-0------0------0------0------0------0------0------0------0------0------0------0------0-----|


G|-------------------------------------------------------------|
D|-------------------------------------------------------------|
A|-------------------------------------------------------------|
E|-0------0------0------0------0------0------0------0------0---|


G|----8-----8---------8-----8---------8-----8--|
D|---------------------------------------------|
A|-6-----6---------6-----6---------6-----6-----|
E|---------------------------------------------|


G|-----------------12-12-12-10----------------------12-12-12-10------|
D|--------------5--------------12-10------------5---------------12---|
A|--------------------------------------------5----------------------|
E|-3--3--3--3-3----------------------3--3--3-------------------------|


G|----------------12-12-12-10---------12--12-10----------------------|
D|------------5---------------12----------------12-10----------------|
A|----------5--------------------10----------------------------------|
E|-3--3--3--------------------------------------------3-----3-----3--|
  development and support by
dmitry ivanov