rock
 
|tablatures   |lyrics   |discussion forums   |more tabs @ XGuitar.com

Queen tabs

Dont Try Suicide bass tab

Song: Don't Try Suicide
Artist: Queen
Album: The Game

Email: BrainError138@hotmail.com

Additional Info:

Tuning: E, A, D, G
R = Rest

Riff 1
|-------------|-------------|-------------|-------------|
|-------------|-------------|-------------|-------------|
|-------------|-------------|-------------|-------------|
|7---8-9-10---|7-7-8-9-10---|8---8-9-10---|7-7-8-9-10---|

Riff 1b
|-------------|-------------|-------------|---------------|
|-------------|-------------|-------------|---------------|
|-------------|-------------|-------------|---------------|
|7---8-9-10---|7-7-8-9-10---|8---8-9-10---|7-7-8-9-10\5/9-|

Riff 2
|------------|------------|--------------|
|------------|------------|--------------|
|------------|------------|--------------|
|7-5-7-R-----|7-5-7-R-----|7-5-7-R-7-5-7-|

Riff 3 *Chorus*
|------------|----------------|----------------|----------------|----------------|
|------------|----------------|----------------|----------------|----------------|
|------------|------------5---|----------------|------------5---|------------5---|
|7-55-9-55-7-|7R7R7---5-------|7R7R7---5---3---|7R7R7---5-------|7R7R7---5-----3-|

Riff 3b
|------------|----------------|----------------|----------------|----------------|------------|
|------------|----------------|----------------|----------------|----------------|------------|
|------------|------------5---|----------------|------------5---|----------------|-----5------|
|7-55-9-55-7-|7R7R7---5-------|7R7R7---5---3---|7R7R7---5-------|7R7R7---5---3---|-5---------5|

Riff 4
|------------------|---------------|------------------|------------------|
|------------------|---------------|------------------|------------------|
|------------------|---------------|------------78----|------------------|
|7-8-9-10-7-8-9-10-|7-6-5-3-7-6-5-3|7-8-9-10-789--987-|7-5h7-5h7-5h7-5h7-|

Riff 4b
|------------------|---------------|-------------------|------------------|------------------|
|------------------|---------------|-------------------|------------------|------------------|
|------------------|---------------|-----787-----------|------------------|------------------|
|7-8-9-10-7-8-9-10-|7-6-5-3-7-6-5-3|7-8-9---9-7-8-9-10-|7-5h7-5h7-5h7-5h7-|8h10-8h10-8h10R---|

Riff1
Riff2
Riff3
Riff1b
Riff2
Riff3
Riff4
Riff4b
Riff1
Riff2
Riff3b
Riff1 until finish
  development and support by
dmitry ivanov