rock
 
|tablatures   |lyrics   |discussion forums   |more tabs @ XGuitar.com

Queen tabs

Another One Bites The Dust guitar tab

Queen

Another One Bites The Dust

By Brian S.

here are the fills

main bassline :
g-----------------r--------------------|
d-----------------e--------------------|
a-1---------------s---------------1----|
e---4---1---1---1-t--1-1-1--4--1-------|

   or

g--------------r--------------------|
d--------------e--------------------|
a--------------s---------------1----|
e----1---1---1-t--1-1-1--4--1-------|

(0:54)             (1:05)  (repeat) 		(1:22) 	
                    d    d u  d  d  d u  d  d
e--1~~--------------1-|:-x-x--1--1--x-x--1--1-:|----------|
b--1~~--------------1-|:-x-x--1--1--x-x--1--1-:|----------|
g--1~~--------------1-|:-x-x--1--1--x-x--1--1-:|----------|
d---------6---3-------|:----------------------:|--6---3---|
a---------6---3-------|:----------------------:|--6---3---|
e---------4---1-------|:----------------------:|--4---1---|

 (3:15)
e--x-x--1--1--1-1-1-1---4--x--x-x--6\-|
b--x-x--1--1--1-1-1-1---4--x--x-x--6\-|
g--x-x--1--1--1-1-1-1---4--x--x-x--6\-|
d-------------------------------------|
a-------------------------------------|
e-------------------------------------|
  development and support by
dmitry ivanov