rock
 
|tablatures   |lyrics   |discussion forums   |more tabs @ XGuitar.com

Queen tabs

All Dead All Dead bass tab

QUEEN - ALL DEAD
TABBED BY PAUL ESPINOZA         THIS SONG IS AWESOME! DOWNLOAD IT!!

:21, :24,
:32 + :35      :51                 :56       :59          1:04
F|-------|----------------------|-------|-------------|------------|
C|-------|------------------2---|-------|-------------|------------|
G|6-4-2-0|---------1--3--5-----5|-------|1--3--5--3--1|------------|
C|-------|0--2--4---------------|2--4--0|-------------|5--0~--0--0~|

       1:29                 1:35          1:37
F|----------------------|-------------|-------------|
C|------------------2---|-------------|-------------|
G|---------1--3--5-----5|-------------|1--3--5--3--1|
C|0--2--4---------------|2--4--0-4-2-0|-------------|

                     1:45                                 2:31
F|------------------------------------------------------|------|
C|------------------------------------------------------|------|
G|------------------------------------------------------|-0--5~|
C|9/4-4--4--4--4--4--4--4--4--4--4--4--4-9--9--9--10--12|------|

        2:33              2:39                  2:44           2:47       2:55
F|-------------------|----------------------|-------------|-------------|------|
C|-------------------|------------------2---|-------------|-------------|------|
G|5--0---0--5-6-4-2--|---------1--3--5-----5|-------------|1--3--5--3--1|------|
C|------------------5|0--2--4---------------|2--4--0-4-2-0|-------------|-0--0~|

ENJOY (PLEASE RATE THIS!)
  development and support by
dmitry ivanov