rock
 
|tablatures   |lyrics   |discussion forums   |more tabs @ XGuitar.com

Queen tabs

Action This Day bass tab

Queen - Action this day
Tabbed by Paul Espinoza

Well, I  did good on my other tabs,
but I'm not sure about this one.  Whatever.

   :06  Verse 5x          :20    Riff 1
F|----------------|-------------------------------------------------
C|----------------|--------33333333---------------------------------
G|----------------|22222222--------0000000-0202-2-1-0-1-2--3--2--1-0
C|0---2-0202022--0|-------------------------------------------------

   :36  Verse 3x          :45    Riff 1
F|----------------|-------------------------------------------------
C|----------------|--------33333333---------------------------------
G|----------------|22222222--------0000000-0202-2-1-0-1-2--3--2--1-0
C|0---2-0202022--0|-------------------------------------------------

  1:26  1:26 Verse 3x
F|----|----------------|--------------------------------------------------
C|----|----------------|--------33333333----------------------------------
G|0202|----------------|22222222--------00000000-0202-2-1-0-1-2--3--2--1-0
C|----|0---2-0202022--0|--------------------------------------------------

  2:56  Verse 12x
F|----------------
C|----------------
G|----------------
C|0---2-0202022--0

Done!!
  development and support by
dmitry ivanov