rock
 
|tablatures   |lyrics   |discussion forums   |more tabs @ XGuitar.com

Queen tabs

A Winters Tale guitar tab

|----Queen:-A Winters Tale(solo)--Transcribed by Fraser Dodds--|
|----This tablature is only for personal and educational uses--|

This is solo for A winters tale, is sounds best with high distortion + high contrast. Enjoy!

"1.44
|-16SL14-14--13-14-13SL-11---18SL16-16-18-19-21--|
|------------------------------------------------|
|------------------------------------------------|
|------------------------------------------------|
|------------------------------------------------|
|------------------------------------------------|


|-19-18-19-16-18-14-16-11---------11-14-14SL-9-9-|
|------------------------------12----------------|
|---------------------------11-------------------|
|------------------------------------------------|
|------------------------------------------------|
|------------------------------------------------|


|-11-12-14-16-11---19----21----23---23SL24-24B---|
|--------------------19----21-----23-------------|
|------------------------------------------------|
|------------------------------------------------|
|------------------------------------------------|
|------------------------------------------------|


The end may not be quite right (I ran out of frets!)
B=Bend String
SL=Slide to fret...
  development and support by
dmitry ivanov