rock
 
|tablatures   |lyrics   |discussion forums   |more tabs @ XGuitar.com

Pink Floyd tabs

Young Lust bass tab

Pink Floyd
"Young Lust"                                           

  I am just a new boy...
||-------------------------------|----------------------------------------|
||-------------------------------|----------------------------------------|
||----------5--7-----------------|----------5--7-----5h7---------------5--|
||--0--0-------------0-----5--5--|--0--0------------------0----0--0-------|

|-------------------------------------|
|-------------------------------------|
|-----------5--7-----------3--5--3--5\|
|--0--0--------------0----------------|

|---------------------------------------|
|---------------------------------------|
|-------------5--7-----5h7--------------|
|--0--0---------------------0-----0--0--|


(pre-chorus)
|-----------------------------------------------------
|--5-----5--3-----3--2-----2--------------------------
|-----------------------------5-----5------3-----3--2-
|-----------------------------------------------------

-------------------------|--------------------|
-------------------------|--------------------|
----2--------------------|--------------7--7--|
-------5-----5--3-----3--|--0--0--------------|


Chorus: Ooooh...
|--------------------------------------------------------------
|--------------------------------------------------------------
|--------------------------------------------------------------
|--5--5-----5--5-----5--5-----5--5-----3--3-----3--3-----3--3--

---------------|-----------------------------------------------
---------------|-----------------------------------------------
---------------|-----------------------------------------------
---3--3--4--4--|--5--5-----5--5-----5--5-----5--5-----0--------


Will some woman...
|--------------------------|-----------------------------------------
|--------------------------|-----------------------------------------
|-----------5--7-----------|-----------5--7-----7-----------------5--
|--0--0--------------0-----|--0--0-----------------0-----0--0--------

|------------------------------|--------0--2--2--2--2--1--0--------------
|------------------------------|-----2-----------------------2--0--2--0--
|------------5--7--------------|-----------------------------------------
|---0--0--------------0--------|--0--------------------------------------



---------------------|
------------------2--|
2--0--1--0-----------|
------------3--0-----|


-- Pre-chorus, chorus


Solo                                                          3x
||------------------------------------------------------------||
||*----------------------------------------------------------*||
||*--7-----7---------7-----7-----7-----7-----10--x--9--7--x--*||
||------0-----0---------0-----0-----0-----0-------------------||

|---------------------------|
|-----2-----4-----5-----7---|
|---------------------------|
|--0-----2-----3-----5------|

||---------------------------------------------------------------|
||*--------5-----5--3-----3--2-----2-----------------------------|
||*-----------------------------------5-----5--3-----3--2-----2--|
||---0--0--------------------------------------------------------|

-------------------------------------------------||
------------------------------------------------*||
---5-----3--5-----3--5-----3--5--3--5--3--5--3--*||
-------------------------------------------------||
                                                                        
                              Chorus
---------------------------|-----------|--------------------||
---------------------------|-----------|--------------------||
-----------5--7------------|-----------|-----------------2--||
--0--0---------------------|-----------|--5--3--2--0--2-----||

Fade out: improv. on main riff                                           


tabbed by Jérôme Melançon
melancon@mindless.com
  development and support by
dmitry ivanov