rock
 
|tablatures   |lyrics   |discussion forums   |more tabs @ XGuitar.com

Pink Floyd tabs

Wish You Were Here guitar tab

From: VTampio <>
Artist:	Pink Floyd
Album:	Wish you were here
Song:	Wish you were here
guitar tabs and/or chords
URL:	http://

For all solos, there is a background

This part is played on a steel string 6 string acustic guitar in the biginning
Later played on a steel string 12 string acustic guitar

e------------3----------3----3-------------3----------3----3----
B------------3----------3----3-------------3----------3----3----
G------------0----0----------0-------------0----0----------0----
D-------0-2--0--2---2-0------0--------0-2--0--2---2-0------0----
A---0h2------2------------2--2----0h2------2------------2--2----
E-3-----------------------3--3--3-----------------------3--3----

e------------3-----------3-----------3-----------3-----------3--
B------------3-----------3-----------3-----------3-----------3--
G------------0-----------2-----------0-----------2-----------0--
D-------0-2--0--2-0------2------0-2--0--2-0------2-----------0--
A---0h2------2------2-0--0--0h2------2------2-0--0--0h2p0----2--
E-3-------------------------------------------------------3--3--

Solo #1

e-------------------------------3/5-3---------------------------
B-----3--5-3--------------------3/5-3--3/5-3--3--3/5--3--3-3----
G-2/4---------4p2p0--------------------2/4-2--0--2/4--2--0-0----
D-------------------0------0-0----------------------------------
A----------------------1/2--------------------------------------
E---------------------------------------------------------------

e---------------------------------------------------------------
B-----3---5--5b(6)-5-3---3-----------3-5----------------3---5---
G-2/4---4--------------4----2--4b(5)-----4b(5)-4-2--2/4---4-----
D---------------------------------------------------------------
A---------------------------------------------------------------
E---------------------------------------------------------------

e-------------------------------------3-
B-5b(6)-5-3---5-----------------------3-
G-----------4----2--4b(5)-4--2h4-2-0--0-
D-------------------------------------0-
A-------------------------------------2-
E-------------------------------------3-

Verse:

C                        D
So, So you think you can tell

            Am                   
Heaven from hell, 

               G
Blue skys from pain

                     D
Can you tell a green field

                C                    
From cold steel rail, 

               Am
A smile from a veil

                     G
Do you think you can tell


                    C
Did they get you to trade

                  D
You're hereos for ghosts

              Am
Hot ashes for trees

              G 
Hot air for a cool breeze

                 D
Cold comfort for change

          C
Did you exchange

                      Am
a walk on part in the war

                     G
for a lead roll in a cage

Solo #2:(with scat singing underneith it)

e--------------------------------/10--------/12--10----------------------
B---/12--12--10/12--12----10/12-------12 --------------------/12--12-12 -
G------------------------------------------------------------------------
D------------------------------------------------------------------------
A------------------------------------------------------------------------
E------------------------------------------------------------------------

   
e------10 ---------------------------------------------------------------
B--/12------/12 11/12-12------12 ----7-----------------------------------
G---------------------------------------7--------------------------------
D-------------------------------------------7/9--------------------------
A------------------------------------------------------------------------
E------------------------------------------------------------------------

 
e--------10--------10-10---------------------12--------------------------
B--10/12-------/12------------15 ------12/14--------14 --/14-14-14-14 ---
G---------------------------------12 ------------------------------------
D------------------------------------------------------------------------
A------------------------------------------------------------------------
E------------------------------------------------------------------------

 
e---------10------------------------------------12-------------------16--
B---10/12---------12 ----------12---------12/14--------14 10--------/13--
G------------------------12/14----12/14----------------------------------
D------------------------------------------------------------------------
A------------------------------------------------------------------------
E------------------------------------------------------------------------

Chorus:

C
How I wish

                    D
How I wish you were here

           Am
We're just two lost souls swimmin' in a fish bowl

G   
Year after year

D
Runnin' over the same old ground

C
and how we found

             Am
the same old fears

              G
Wish you were here


Bridge:

This part is the same as the begining background
If one person has been playing the solos and another
has been playing the background, the soloist can play 
this part I made up. It seems to fit well.

e----------0-------0-------0--0-3-0--3-------3-------3--
B-------3----0---0---0---0-------------3---3---3---3----
G-0-2h4--------0-------0-----------------0-------0------
D-------------------------------------------------------
A-------------------------------------------------------
E-------------------------------------------------------

e----------0-------0-------0--0-3-0--3-------3-------3--
B-------3----0---0---0---0-------------3---3---3---3----
G-0-2h4--------0-------0-----------------0-------0------
D-------------------------------------------------------
A-------------------------------------------------------
E-------------------------------------------------------


e----------0-------0-------0--0------3-------3-------3--
B-------3----0---0---0---0------3-0----3---3---3---3----
G-0-2h4--------0-------0-----------------2-------2------
D-------------------------------------------------------
A-------------------------------------------------------
E-------------------------------------------------------

e--------0-------0-------0--0------3-------3-------3----
B-----3----0---0---0---0------3-0----3---3---3---3------
G-2h4--------0-------0-----------------2-------2--------
D-------------------------------------------------------
A-------------------------------------------------------
E-------------------------------------------------------

e----------3-------3-------3--
B------------3---3---3---3----
G-2h4-2-0------0-------0------
D-----------------------------
A-----------------------------
E-----------------------------

Solo #3:(Doubled by scat singing)

e---------------------------------------------------------------------------
B-----3---3--5---------3---3--5-------10/12-10--8-8-------------------------
G-------4--------4---4---4--------------------------7--9---9/12-------------
D---------------------------------------------------------------------------
A---------------------------------------------------------------------------
E---------------------------------------------------------------------------

e----------------------------------------------10--12 10--------------------
B-----3--0--3---5---------8---8--10--8--10/12------------/12----------------
G---------------------------9-----------------------------------------------
D---------------------------------------------------------------------------
A---------------------------------------------------------------------------
E---------------------------------------------------------------------------

e--------7-----------------------------10-10-------10-10-------10-10--------
B----/12---10p8-----/12-/12------10/12-------10/12-------10/12--------------
G---------------9-7---------------------------------------------------------
D---------------------------------------------------------------------------
A---------------------------------------------------------------------------
E---------------------------------------------------------------------------

e---------------12-12------------10--------12----------10-------------------
B--10/12 10-/14------------10/12-----12/14-------10/12-------8----8---8---8-
G-------------------------------------------------------------------9---9---
D---------------------------------------------------------------------------
A---------------------------------------------------------------------------
E---------------------------------------------------------------------------

     (begin fade)   
e-------------------
B----8---8-10---- --
G------9------------
D-------------------
A-------------------
E-------------------

Individual Chords:

G: 320033
Am: 002210
D: 200323
C: 332010

straight forward
  development and support by
dmitry ivanov