rock
 
|tablatures   |lyrics   |discussion forums   |more tabs @ XGuitar.com

Pink Floyd tabs

When Youre In guitar tab

From: Jeff and Jane Scott 


WHEN YOU'RE IN
Pink Floyd
(Mason, Gilmour, Waters, Wright)

E-----------------|-------------------|-----------------|----------------|
B-----------------|-------------------|-----------------|----------------|
G-----------------|-------------------|--------------x-x|-7-5------------|
D-7---7---5-7-7---|-7---7---5-7-7-5---|--------------x-x|-7-5------------|
A-7---7---7---7---|-7---7---7---7---7-|-----------------|----------------|
E-5---5---5---5---|-5---5---5---5-----|-5---------------|----------------|

E-----------------|-------------------|-----------------|----------------|
B-----------------|-------------------|-----------------|----------------|
G-----------------|-------------------|--------------x-x|-7-5------------|
D-7---7---5-7-7---|-7---7---5-7-7-5---|--------------x-x|-7-5------------|
A-7---7---7---7---|-7---7---7---7---7-|-----------------|----------------|
E-5---5---5---5---|-5---5---5---5-----|-5---------------|----------------|

E-------------------|-------------------|----------------|---------------|
B-------------------|-------------------|----------------|---------------|
G-7---7---7-5-------|-7---7---7-5-------|----------------|---------------|
D-7---7---7---7-7---|-7---7---7---7-7-5-|-5-7------------|---------------|
A-5---5---5---5-5---|-5---5---5---5-5-5-|-5--------------|---------------|
E-------------------|-------------------|----------------|---------------|

E-----------------|-------------------|-----------------|----------------|
B-----------------|-------------------|-----------------|----------------|
G-----------------|-------------------|-----------------|----------------|
D-7---7---5-7-7---|-7---7---5-7-7-5---|-----------------|----------------|
A-7---7---7---7---|-7---7---7---7---7-|-----------------|----------------|
E-5---5---5---5---|-5---5---5---5-----|-5---------------|----------------|

E-----------------|-------------------|-----------------|----------------|
B-----------------|-------------------|-----------------|----------------|
G-----------------|-------------------|--------------x-x|-7-5------------|
D-7---7---5-7-7---|-7---7---5-7-7-5---|--------------x-x|-7-5------------|
A-7---7---7---7---|-7---7---7---7---7-|-----------------|----------------|
E-5---5---5---5---|-5---5---5---5-----|-5---------------|----------------|

E-----------------|-------------------|-----------------|----------------|
B-----------------|-------------------|-----------------|----------------|
G-----------------|-------------------|--------------x-x|-7-5------------|
D-7---7---5-7-7---|-7---7---5-7-7-5---|--------------x-x|-7-5------------|
A-7---7---7---7---|-7---7---7---7---7-|-----------------|----------------|
E-5---5---5---5---|-5---5---5---5-----|-5---------------|----------------|

E-------------------|-------------------|----------------|---------------|
B-------------------|-------------------|----------------|---------------|
G-7---7---7-5-------|-7---7---7-5-------|-------------x-x|-7-5-----------|
D-7---7---7---7-7---|-7---7---7---7-7-5-|-5-7---------x-x|-7-5-----------|
A-5---5---5---5-5---|-5---5---5---5-5-5-|-5--------------|---------------|
E-------------------|-------------------|----------------|---------------|

E-----------------|-------------------|-----------------|----------------|
B-----------------|-------------------|-----------------|----------------|
G-----------------|-------------------|-----------------|-Repeat ad lib.-|
D-7---7---5-7-7---|-7---7---5-7-7-5---|-----------------|----------------|
A-7---7---7---7---|-7---7---7---7---7-|-----------------|----------------|
E-5---5---5---5---|-5---5---5---5-----|-5---------------|----------------|


--
Updated Oct. 8/97
  development and support by
dmitry ivanov