rock
 
|tablatures   |lyrics   |discussion forums   |more tabs @ XGuitar.com

Pink Floyd tabs

Vera guitar tab

VERA
Pink Floyd
(Roger Waters)

   (television sound efffects
    for approx. 18 seconds)
e-|----------------------------||--------------------------------|
B-|----------------------------||--------------------------------|
G-|----------------------------||--------------------------------|
D-|----------------------------||--------------------------------|
A-|----------------------------||--------------------------------|
E-|----------------------------||--------------------------------|
			          Does anybody here remember Vera 

    Em
e-|----------------------------|-----------0--------------|
B-|--------0-------------------|--------0-----------------|
G-|-----0-----0-------0-----0--|-----0-----------0-----0--|
D-|--2-----------(2)-----2-----|--2-----------2-----0-----|
A-|----------------------------|--------------------------|
E-|----------------------------|--------------------------|
     Lynn?

      C				   D
e-|-------------0---------------|-----------2---------------|
B-|----------1-----1------------|--------3-----3------------|
G-|-------0-----------0---------|-----2-----------2-----0---|
D-|--------------------------2--|--0-----------------0------|
A-|---3-------------------3-----|---------------------------|
E-|-----------------------------|---------------------------|
		Remember	   how   she   said  that

      G	      D/F#		  C			      Em
e-|----------------------------|---------------------------|-----------------|
B-|----------------------------|-----------1---------------|-----------------|
G-|----------------------------|--------0-----0------------|-----------------|
D-|----------------------------|-----2-----------2-----2---|-----------------|
A-|----------------------------|--3-----------------3------|-----------------|
E-|---3--------2---------------|---------------------------|---0-------------|
     we would   meet  again	     some  sun - ny  day.
	
e-|-----------------------------------|----------------------------------|
B-|--(5)-----5/8-------7-------5------|--5/10-----10/13------------------|
G-|-------0--------0-------0-------0--|--------0----------0--------------|
D-|---2------2/5-------4-------2------|--2/7-------7/10------9-----------|
A-|-----------------------------------|----------------------------------|
E-|-----------------------------------|----------------------------------|

    Am7		    D		       G	      C		          Em
e-|--3-----------|--2-------------|----------------|--0----0--3--0-----------|
B-|--1-----------|--3-------------|-----------3----|--1----------------------|
G-|--0-----------|--2-------------|---(0)----------|--0----------------------|
D-|--2-----------|--0-------------|----------------|--2----------------0---2-|
A-|--0-----------|----------------|----------------|--3-------------3--------|
E-|--------------|----------------|----------------|-------------------------|
     u.		    u.				      u.

							Em7
e-|----------------------------|---------------------------------|
B-|----------------------------|-------------------------3-------|
G-|----------------------------|-------------------------0-------|
D-|----------------------------|-------------------------0-------|
A-|----------------------------|-------------------------2-------|
E-|----------------------------|-------------------------0-------|
    Vera!    Vera!		  What has become of you?

    Em				 C
e-|-----------0---------------|--------------0------------|
B-|--------0------------------|-----------1-----1---------|
G-|-----0------------0-----0--|--------0------------------|
D-|--2------------2-----0-----|-----2------------------2--|
A-|---------------------------|--3------------------3-----|
E-|---------------------------|---------------------------|
					   Does any - body

      D				 G		D/F#
e-|---------------------------|--3----------3---2h3---2-------|
B-|---------3-------0--1--2---|------0--------------------3---|
G-|------2--------------------|---------0---------------------|
D-|---0---------0-------------|-------------------------------|
A-|---------------------------|-------------------------------|
E-|---------------------------|--3--------------2-------------|
     else in here		 feel    the way  I     do?

     C						
e-|-(0)--------0---------------|--------------------------------||
B-|---------1-----1------------|--------------------------------||
G-|------0------------0--------|--------------------------------||
D-|--------------------------0-|---2----------------------------||
A-|--3--------------------2----|--------------------------------||
E-|----------------------------|--------------------------------||
					   (Segue to "Bring the
					        Boys Back Home")
  development and support by
dmitry ivanov